Guitaretab - guitar tabs
Song name
# A B C D E F G H I J K L M N O P Q R S T U V W X Y Z

Rilo Kiley - The Good That Wont Come Out tab

Rilo Kiley The Good That Won't Come Out
this works out pretty good i'd say.
Stewart

Intro:
-------------------------------------|
-------0~~~-----------(0)~~----------|
---------------0~~~----0~~~----------|
-0h2-2-------------------5-5-5-5-5---|
---------0h2-2---2h3-3---3-3-3-3-3---|
-------------------------------------|
Implied chords
Em       G/B+6   C5


Em:	0 2 2 0 0 0
G/B+6:	x 2 0 0 0 0
C5:	x 3 5 0 0 0
G:	3 2 0 0 0 3
Cmaj7+5:x 3 2 0 0 3
Cm:	x 3 5 5 6 3
F#m:	2 4 4 2 2 2
D*:	x 5 4 0 0 0
G6:	3 x 2 0 0 0
Em*:	x 7 9 ~
Verse:	Em G/B+6 Cmaj7
Chorus:


Let's get together and talk about the modern age.  All of our friends were gathered 
with their pets just talking shit about how we're all so upset about the disappearing 
 As we watch it melt.... (Cmaj7+5)

                G
It's all of the good
                Cmaj7+5
that won't come out of us
         Cm
and how eventually our hands
          G
will just turn to dust,
           F#m
if we keep shaking them.
         Cmaj7+5
Standing here on this frozen lake.

I do this thing where I think I'm really sick, but I won't go to the doctor to find out 
it.  Cause they make you stay real still in a real small space as they chart up your 
and put them on display.
           Cmaj7+5
They'd see all of it, all of me, all of it.
[ Tab from: http://www.guitaretab.com/r/rilo-kiley/73427.html ]
All of the good that won't come out of me
and all the stupid lies I hide behind.
It's such a big mistake,
lying here in your warm embrace.

Cmaj7+5    D*                      Em*         D*          Cmaj7+5
Oh, you're almost home.  I've been waiting for you to come in.
Dancing around in your old suits going crazy in your room again.
I think I'll go out and embarrass myself by getting drunk and falling down in the street.
You say I choose sadness, that it has never chosen me.

Maybe you're right....

---------|---------|---------|---------|---------|---------|---------|---------|
---------|---------|---------|---------|---------|---------|---------|---------|
-0-0-0-0-|-0-0-0-0-|-0-0-0-0-|-0-0-0-0-|---------|-0-0-0-0-|-0-0-0-0-|-0-0-0-0-|
-2-2-2-0-|-0-0-0-0-|-4-4-4-5-|-5-5-5-5-|-7-7-7-7-|-4-4-4-4-|-2-2-2-2-|-2-2-2-2-|
-x-x-x-x-|-x-x-x-x-|-5-5-5-5-|-5-5-5-5-|-7-7-7-7-|-5-5-5-5-|-3-3-3-3-|-3-3-3-3-|
-3-3-3-3-|-3-3-3-3-|---------|---------|---------|---------|---------|---------|
(second time has less variation)

Intro 2x

Let's talk about all of our friends who lost the war and all of the novels that had yet 
be written about them.

It's all the good that won't come out of them,
and all the stupid lies they hide behind.
It's such a big mistake,
standing here on this frozen lake.
It's all of the good that won't come out of me
and how eventually my mouth
will just turn to dust,
if I don't tell you quick.
Standing here on this frozen lake.
Related for The Good That Wont Come Out tab
×
The Good That Wont Come Out