Song name
# A B C D E F G H I J K L M N O P Q R S T U V W X Y Z

Rilo Kiley - My Slumbering Heart tab

Help us improve GuitareTab! Take a short survey!
My slumbering heart chords

Intro (palm mute first time through)
E|---------------------------------|
B|---------------------------------|
G|-----14------14------14------14--|
D|-12------12------12------12------|
A|---------------------------------|
E|---------------------------------|

*| E|----------------------------------|
*| B|----------------------------------|
*| G|------14------14------14------14--|
*| D|--12------12------12------12------|
*| A|----------------------------------|
*| E|----------------------------------|

---------------------------------------------------------------------------------------------------|
---------------------------------------------------------------------------------------------------|
--------------------------------------------------------------------14------14---------------------|
----14------14------14------14------16------16------16------16--12------12----------14------14-----|
12------12------12------12------14------14------14------14----------------------12------12---------|

|* x2

Chorus:
D---A---Bm---D---Bm---D---Bm---A-------

Verse:
D-------A-------Bm-------D---A---

Bridge
E|--------------------------------------------|
B|--------------------------------------------|
G|--------------------------------------------|
D|--------------------------------------------|
A|---------9h10/12--12--12--12/14-------------|
E|--10h12--------------------------14---------|

E|--------------------------------------------|
B|--------------------------------------------|
G|--------------------------------------------|
D|--------------------------------------------|
A|---------9h10/12--12--12--12/14-------------|
E|--10h12--------------------------12---------|

E|--------------------------------------------|
B|--------------------------------------------|
G|--------------------------------------------|
D|--------------------------------------------|
A|---------9h10/12--12--12--12/14-------------|
E|--10h12--------------------------10---------|

E|--------------------------------|
B|--------------------------------|
G|--------------------------------|
D|--------------------------------|
A|---------------------12--12-----|
E|--12--10--12--12/14-------------|

If anyone wants, I can tab out the solos and stuff, Just haven't around to it yet.
-HellBent1337
Related for My Slumbering Heart tab