Song name
# A B C D E F G H I J K L M N O P Q R S T U V W X Y Z

Rilo Kiley - The Moneymaker tab

-------------------------------------------------------------------------------
			     SONG NAME -The Money Maker
-------------------------------------------------------------------------------
Tabbed by:Alex
Email:camacho.mail@gmail.com

this is sorta for acoustic, i learned the entire song by ear and it sounds decent.
this is my first tab.

Tuning:standard

e|-------------------------------------------------------------------12--|
B|--------17---15--13----12---13--12--------17--15--13--12--13-------12--|
G|------------------------------------12------------------------12---12--|
D|-----------------------------------------------------------------------|
A|-----------------------------------------------------------------------|
E|-----------------------------------------------------------------------|


Figure out the strumming on your own- repeats through out the entire song

e|-----0-----------------------------------------------------------|
B|-----0---------------------------------\--12---------------------|
G|-----1---------------------------------\--12-- --switches to--9--|
D|-----2-----------5--5-----7-----9------\--12------------------9--|
A|-----2-----------5--5-----7-----9-----------------------------7--|
E|-----0-----------3/-2-----5-----7--------------------------------|

She is out out out oh yeah..
e|-----------------------------------------------------------------------------------|
B|-----------------------------------------------------------------------------------|
G|-----------------------------------------------------------------------------------|
D|----9--7--5------------------------------------------------------------------------|
A|--------------7----5p3--5\7--------------------------------------------------------|
E|-----------------------------------------------------------------------------------|

if you like you can play it lower

e|-------------------------------------------------------------------------------------|
B|-------------------------------------------------------------------------------------|
G|-------------------------------------------------------------------------------------|
D|---21--19--17------------------------------------------------------------------------|
A|---------------19--17--15--17--------------------------------------------------------|
E|-------------------------------------------------------------------------------------|

interlude:  E D  A     E  D  G  C


Ends on an Em


| /  slide up
| \  slide down
| h  hammer-on
| p  pull-off
| ~  vibrato
| +  harmonic
| x  Mute note
===============================================================================
Tap to rate this tab
# A B C D E F G H I J K L M N O P Q R S T U V W X Y Z