Ringo Starr - It Dont Come Easy tab

-------------------------------------------------------------------------------
			     IT DONíT COME EASY (solo) Ė George Harrison
-------------------------------------------------------------------------------
Tabbed by: Chelsea
Email: Chelsea.m.paige@gmail.com

Tuning: standard

This is my first tab, so go easy on me! This is basically right. This is the 
guitar solo from the version of this song that George Harrison recorded.

e|-------------------------------------------------------------8-----|
B|------------------10----------------------------5/8----------------|
G|---10b12br10b12-------12br10------5--------------------------------|
D|-------------------------------------------------------------------|
A|-------------------------------------------------------------------|
E|-------------------------------------------------------------------|

e|-------10b12br10---8----8----10b12br10-------10--10--10h12p10------|
B|-------------------------------------------------------------------|
G|-------------------------------------------------------------------|
D|-------------------------------------------------------------------|
A|-------------------------------------------------------------------|
E|-------------------------------------------------------------------|

e|------14------14-----10-----14p12p10------4/5----------------8------|
B|-------------------------------------------------------5/8----------|
G|--------------------------------------------------------------------|
D|--------------------------------------------------------------------|
A|--------------------------------------------------------------------|
E|--------------------------------------------------------------------|

e|---------10b11br10----8----8-----10b11br--10--------------------------|
B|--------------------------------------------------------9b11br9b11br9-|
G|----------------------------------------------------------------------|
D|----------------------------------------------------------------------|
A|----------------------------------------------------------------------|
E|----------------------------------------------------------------------|

e|----------------------------------------------------------------------|
B|-----7b8br7--3--------------------------------------------------------|
G|----------------------------------------------------------------------|
D|----------------------------------------------------------------------|
A|----------------------------------------------------------------------|
E|----------------------------------------------------------------------|

************************************

| /   slide up
| \   slide down
| h   hammer-on
| p   pull-off
| ~   vibrato
| +   harmonic
| x   Mute note
| b   Bend
| pb  Pre-bend
| br  Bend release
| pbr Pre-bend release
| brb Bend release bend

************************************
Tap to rate this tab
 
# A B C D E F G H I J K L M N O P Q R S T U V W X Y Z