Ringo Starr - Photograph tab

Tabbed by:Rex510
Email:rex510mail@gmail.com

Intro (Riff 1) B Chord:


    B
e|---------------------7----------4-5-7------------------------------------|
B|----4-5-7-4----4-5-7------4-5-7------------------------------------------|
G|-------------------------------------------------------------------------|
D|-------------------------------------------------------------------------|
A|-------------------------------------------------------------------------|
E|-------------------------------------------------------------------------|

Riff 2:

e|---------4-5-7-----------------------------------------------------------|
B|---4-5-7-----------------------------------------------------------------|
G|-------------------------------------------------------------------------|
D|-------------------------------------------------------------------------|
A|-------------------------------------------------------------------------|
E|-------------------------------------------------------------------------|

Riff 3:

e|-------------------------------------------------------------------------|
B|---5-5-4-4-2-2-----------------------------------------------------------|
G|---------------4---------------------------------------------------------|
D|-------------------------------------------------------------------------|
A|-------------------------------------------------------------------------|
E|-------------------------------------------------------------------------|



E
Every time I see your face,
         A            E                 B
It reminds me of the places we used to go.     Riff 2
E                     
But all I've got is a photograph,
      A                  E              B
And I realize you're not coming back anymore.  Riff 2


Ab
I thought I'd make it,
    C#m
The day you went away.                         Riff 3
Ab
But I can't make it,
             C#m              B
'Til you come home again to stay.              Riff 2

E
I can't get used to living here
          A                E                    B
While my heart is broke, my tears are cried for you    Riff 2
  E
I want you here to have and hold
       A                E                B
As the years go by, and we grow old and gray.          Riff 2

Solo (sorry, no lead):

E A E B E A E B            finishing all the solo play the Riff 2

Ab
Now you're expecting me,                  
    C#m
To live without you.              Riff 3
Ab  
But that's not something,
         C#m             B
That I'm looking forward to.      Riff 2



E
I can't get used to living here,
          A                E                    B
While my heart is broke, my tears are cried for you.   Riff 2
  E
I want you here to have and hold,
       A                E                B
As the years go by, and we grow old and gray.          Riff 1


E
Every time I see your face,
         A            E                 B
It reminds me of the places we used to go.             Riff 2
    E                     
But all I've got is a photograph,
      A                  E              B
And I realize you're not coming back anymore.          Riff 2

Repeat the last verse and fade out.


All the riffs got out from my inspiration when i was listening to this song so i 
hope it works for you.

************************************

| /   slide up
| \   slide down
| h   hammer-on
| p   pull-off
| ~   vibrato
| +   harmonic
| x   Mute note
| b   Bend
| pb  Pre-bend
| br  Bend release
| pbr Pre-bend release
| brb Bend release bend

************************************
Tap to rate this tab
 
# A B C D E F G H I J K L M N O P Q R S T U V W X Y Z