Song name
# A B C D E F G H I J K L M N O P Q R S T U V W X Y Z

Rings Of Saturn - Embyonic Anomaly tab

Another fucking hard song by rings of saturn! Tabbbed 100% by ear. If you have guitar
pro 6, I recomend you use it for these songs and tell me about them because I don't have
gp6 yet. Anyways, here's my favorite song on the entire album.......EMBRYONIC ANOMALY!!! 
Oh, and in case you guys haven't noticed, I'm tabbing these all from my android phone, so
be fucking happy!

=============================================================================
  Song: Embryonic Anomaly
Album: Embryonic Anomaly
Tuning: DROP A# (A# F A# D# G C)


INTRO.(x2)...fyi, I fucked the intro to shit..its supposed to be one string lower until 
u hit the triads
|------------------------------------------------------------------------------------------|
|-------------------------------------------------------------------------------16\15/16\--|
|----------------------11------------------------------------------------11--18\17/18\-----|
|--------------8-9-10----10-9-8-----------------------------8-9-10-------------------------|
|-8-9-10-11-----------------------11-10-9-8-8-9-10-11--------------------------------------|
|------------------------------------------------------------------------------------------|

|----------------------------------------------------------------------------------------------|
|------------------------------------------------------------------------------------15/16/18--|
|-------------------------11---------------------------------------------------11-17/18/20-----|
|---------------8-9-10-------10-9-8------------------------------8-9-10------------------------|
|-8-9-10-11---------------------------11-10-9-8-8-9-10-11--------------------------------------|
|----------------------------------------------------------------------------------------------|

=============================================================================

Solo-thing
     T.                T.              T.              T
|-22p15p10----------------21p14p9-------------------------------------------|
|----------------22p15p10--------------21p14p9-----------------15-----------|
|---------------------------------------------------------------14---14-----|
|------------------------------------------------------------13---13--------|
|---------------------------------------------------------12----------------|
|---------------------------------------------------------------------------|

|-------16----16h19-------|
|----15----15-------------|
|-14----------------------|
|-------------------------|x2
|-------------------------|
|-------------------------|

|-------19----------20---------19-----------20------------------------------------------|
|----18---18---19---19---18---18----19---19-22-19-(x3)----------------------------------|
|-16---------17----------16----------17-----------------------21-18(x3)-----------------|
|---------------------------------------------------------------------20-17(x3)---------|
|---------------------------------------------------------------------------19-16(x3)---|
|---------------------------------------------------------------------------------------|

|--------------------------------------------------------------17--------------------19--|
|-------20--------21----------20----------21----------18---18--------------18------------|
|----19--19---20---20---19---19---20---20----16---------16--------16---------------------|
|-17--------18---------17----------18-----------16---------------16--16------------------|
|-------------------------------------------------------------------------19-------------|
|----------------------------------------------------------------------------------------|

-repeat all twice

=============================================================================

Verse
|---------------------------------------------------------------------|
|---------------------------------------------------------------------|
|--------9999----------8888---------------9999------------------------|
|------------8888-----------7777--------------8888------5-6-7-8-------|x2
|----------------6666-----------5555--------------6666-5-6-7-8--------|
|--1111--------------0000----------1111-------------------------------|
Pm....                 ....                 ....

|-----------------------------------------|
|-----------------------------------------|
|-----------------------------5h6h8-------|
|--8---8--7---7---7---6h7h8---------------|
|----56--56-5--5---5----------------------|
|-----------------------------------------|
Pm.  ..   ..   .   .   .

|-------------------------------------------|
|-11-------------------12-------------------|
|---9-7------------------10-8---------------|
|------11-10-7-9-10-------12-11-8-10-11-----|
|-------------------------------------------|
|-------------------------------------------|

-figure out reps for yourself. Shouldn't be that hard.

=============================================================================

|----------------------------------|
|----------------------------------|
|--------------------10h11h13------|
|----------------10h11h13----------|
|----------10h11h13----------------|
|-10h11h13-------------------------|

|------------------------------------------------------------|
|------------------------------------------------------------|
|----------------------10h11h13-11p9p8-----------------------|
|----------------10h11h13----------11p9p8--------------------|
|----------10h11h13---------------------11p9p8---------------|
|-10h11h13----------------------------------11p9p8-----------|

|-18p17p15----------------------------------|
|------------18p17p15-----------------------|
|---------------------18p17p15--------------|
|------------------------------18p17p15-----|
|-------------------------------------------|
|-------------------------------------------|

|-18p17p15--------------------------------------------------13h15h16---|
|-----------18p17p15--------------------------------13h15h16-----------|
|-------------------18p17p15------------------13h15h16-----------------|
|----------------------------18p17p15-13h15h16-------------------------|
|----------------------------------------------------------------------|
|----------------------------------------------------------------------|

- alright..my fingers are killing me now. I'll put the rest up later. Have fun
attempting this one for now! Rate please!
Tap to rate this tab
 
# A B C D E F G H I J K L M N O P Q R S T U V W X Y Z