Song name
# A B C D E F G H I J K L M N O P Q R S T U V W X Y Z

Ringside - Raining Next Door tab

                     RAINING NEXT DOOR - RINGSIDE
---------------------------------------------------------------------------------------------------|

This is an awesome song especially when performed live acoustic. No one else had tabbed 
so here it is:

    Chords used
     Em  G   F#m
e [--0---3----0--]
B [--0---0----0--]
G [--0---0----3--]
D [--2---0----4--]
A [--2---2----4--]
E [--0---3----2--]


VERSES

  She said she didn't get the job again

    Em
e|------------------------------------------------|
B|------------------------------------------------|
G|-----------------------------------3------------|
D|-------2-------0-----------4---------4---4------|
A|-----2---2---2---2-------4---4---------4--------|
E|---0-------3-----------2------------------------|

Chorus

'Cos its always raining next door...

     Em            G             F#m       F#m
e|------0------------3-------------0---------0-----|
B|------0------------0-------------0---------0-----|
G|------0------------0-------------3---------3-----|
D|--2-2-2-2------0-0-0-0-------4-4-4-4---4-4-4-4---|
A|--2-2-2-2------2-2-2-2-------4-4-4-4---4-4-4-4---|
E|--0-0-0-0------3-3-3-3-------2-2-2-2---2-2-2-2---|

 Em       G       F#m      F#m
9 a.m. she comes 'round my house
   Em             G               F#m           F#m
Saying last night did you have to play so loud
  Em                        G
I mean I like your songs - well at least a few
  F#m                  F#m
But to be quite honest I'm tired of listening to you
 Em                    G
You got no good reason to ever be down
 F#m
You got sunshine in your windows
 F#m
And your friends around
 Em       G                F#m     F#m
And me - I've just got the rain

Thats pretty much it. Except you can pick and strum during the verses, whichever sounds 
Enjoy!

Peace. Agah
Tap to rate this tab
# A B C D E F G H I J K L M N O P Q R S T U V W X Y Z