Song name
# A B C D E F G H I J K L M N O P Q R S T U V W X Y Z

Ringworm - Again And Again tab

ARTIST - RINGWORM
SONG - AGAIN AND AGAIN
ALBUM - BIRTH IS PAIN
DATE - 1/8/02

STANDARD TUNING

x = palm muting
/ = slide up
~ = hold note

INTRO

GUITAR 1
----------------------------------------------------------------------------
----------------------------------------------------------------------------
------------------3-------------6---------------------------------------3---
----2-------------3-------------6-------------2------------3------------3---
----2-------------1-------------4-------------2------------3------------1---
----0-------------1-------------4-------------0------------1----------------
REPEATS OVER SOLO

GUITAR 2
----------------------------------------------------------------------------
----------------------------------------------------------------------------
----------------------------------------------------------------------------
----------------------------------------------------------------------------
----------------7--8--7--5--7/8----------8h10p8/7---------------------------
----------------------------------------------------------------------------
           PM   x  x  x  x  x x          x  x   

----------------------------------------------------------------------------
----------------------------------------------------------------------------
-----------------------------------------~9---9h10p9------------------------
--------9-10-12-9h10p9------------------------------------------------------
------------------------------12-10-9---------------------------------------
----------------------------------------------------------------------------


-~12---------10--------------10---------------------------------------------
---~12-~13-----13-12-10-12-13--13-12-10-------------------------------------
--------------------------------------------------12p11p10p9---9h10p9-------
----------------------------------------------------------------------------
----------------------------------------------------------------------------
----------------------------------------------------------------------------
                                           (possible slight variation)

THEN PLAY INTRO RIFF X2 AS FIRST VERSE ("THE MORE THEY CHANGE.....")

2ND VERSE ("AGAIN AND AGAIN AND AGAIN AND AGAIN....")
RIFF 2
----------------------------------------------------------------------------
----------------------------------------------------------------------------
------------------9--------------7----------------10------------------------
------------------9--------------7----------------10------------------------
------------------7--------------5-----------------8------------------------
---------000000---------0000---------------00-------------------------------     PM  xxxxxx         xxxx               xx
REPEAT X8
THEN PLAY...
RIFF 3
----------------------------------------------------------------------------
----------------------------------------------------------------------------
-9-----7-------7/10---9----------------9/10---------9/10---------9/10-------
-9-----7-------7/10---9----------------9/10---------9/10---------9/10-------
-7-----5-------5/8----7----------------7/8-----------7/8----------7/8-------
-0----------------------------0000-------------00------------00----------00-                              xxxx             xx            xx          xx

REPEAT X4
THEN, 
RIFF 2  X4
RIFF 3 X4

OUTRO (WITH SOLO) PLAY SAME AS THE INTRO

I DO KNOW THE MAIN SOLO BUT IM TIRED AND CANT BE BOTHERED TO TAB IT ALL OUT. 
ITS NOT REALLY THAT HARD ANYWAY (BASED AROUND THE SAME NOTATION AS THE FIRST SOLO)
Tap to rate this tab
 
# A B C D E F G H I J K L M N O P Q R S T U V W X Y Z