Guitaretab - guitar tabs
Song name
# A B C D E F G H I J K L M N O P Q R S T U V W X Y Z

Ringworm - Birth Is Pain tab

Ringworm	
Birth is Pain
From the Album: Birth is Pain
Tabbed by: Jack Gremmer (bootboy7us@yahoo.com)

Standard Tuning: EADGBE

Intro Riff A: :00-:35
|------------------------------------------|
|------------------------------------------|
|------------------------------------------|
|-7-----------8-----------7-----------88-7-|
|-5-22222222--6-22222222--5-22222222--66-5-|
|---00000000----00000000----00000000-------|

Intro Riff B: :35-:38
|-----------------------|
|-----------------------|
|-----------------------|
|-----------------------|
|-22222222--8-7-5-7-5-3-|
|-00000000--6-5-3-5-3-1-|

Verse Riff A: :38-:50
|-----------------------------------|
|-----------------------------------|
|-----------------------------------|
|------8------8------8--------------|
|-222--6-222--6-222--6--8-7-5-7-5-3-|
|-000----000----000-----6-5-3-5-3-1-|

Verse Riff B: :50-1:14
|-----------------------------------|
|-----------------------------------|
|-----------------------------------|
|-----------7/8888------------------|
|-22222222--5/6666--5/8888-5/8888---|
|-00000000----------3/6666-3/6666---|

Verse Riff A: 1:15-1:27
Verse Riff B: 1:28-1:53

Breakdown Riff A: 1:56-2:08
|-------------------|
|-------------------|
|-------------------|
|---------------4---|
|-2-4-5-2-4-5-7-2-2-|
|-0-2-3-0-2-3-5---0-|

Breakdown Riff B: 2:09-2:37
|-------------------------------------------------------|
|-------------------------------------------------------|
|-------------------------------------------------------|
|----------------------4----------8-----------------4---|
|-222222-2-4-5-2-4-5-7-2-2---222--6---2-4-5-2-4-5-7-2-2-|
|-000000-0-2-3-0-2-3-5---0---000------0-2-3-0-2-3-5---0-|

Outro Riff: 2:38-2:51
|----------------|
|----------------|
|----------------|
|----------------|
|-2--3/66--5/68--|
|-0--1/44--3/66--|

Thanks.
[ Tab from: http://www.guitaretab.com/r/ringworm/43140.html ]
Related for Birth Is Pain tab