Song name
# A B C D E F G H I J K L M N O P Q R S T U V W X Y Z

Rinoa - Fires In The Distant North tab

Fires in the Distant North
Rinoa
An Age Among Them

Half Step down tuning

INTRO

-----3--5------------6--5-----1--5--|
------------------------------------|
------------------------------------|
--1--------0------5--------3--------|
------------------------------------|
------------------------------------|


-----3--5------------6--5-----1--5--|
------------------------------------|
------------------------------------|
--1--------0------5--------3--------|
------------------------------------|
------------------------------------|


-----3--5------------6--5-----1--5--|
------------------------------------|
------------------------------------|
--1--------0------5--------3--------|
------------------------------------|
------------------------------------|
Tap to rate this tab
 
# A B C D E F G H I J K L M N O P Q R S T U V W X Y Z