Song name
# A B C D E F G H I J K L M N O P Q R S T U V W X Y Z

Riot - Swords And Tequila tab

-------------------------------------------------------------------------------
                             Swords and Tequila - Riot
-------------------------------------------------------------------------------
Tabbed by:eduardico21
E-mail:eddyrock21@hotmail.es

Tuning:standard

Intro & Main riff
e|--------------------------------------------------------------------------|
B|--------------------------------------------------------------------------|
G|------2-----2-----5-----7-7---------2-----2-----5-----7-------------------|
D|--2---2-----2-----5-----5-5-----2---2-----2-----5-----5--5-4-2------------|
A|--0-0---0-0---0-0---0-0---------0-0---0-0---0-0---0-0----3-2-0------------|
E|--------------------------------------------------------------------------|

This in the intro and back to the riff
e|--------------------------------------------------------------------------|
B|--------------------------------------------------------------------------|
G|--5~~--5-5-5--------------------------------------------------------------|
D|--5~~--5-5-5---5-4-2------------------------------------------------------|
A|--3~~--3-3-3---3-2-0------------------------------------------------------|
E|--------------------------------------------------------------------------|

Pre chorus and chorus
e|--------------------------------------------------------------------------|
B|--------------------------------------------------------------------------|
G|--5~~--9~~----------------------------------------------------------------|
D|--5~~--9~~---2---------------5--------------7--------------2--------------|
A|--3~~--7~~---0-0-0-0-0-0-0---3-3-3-3-3-3-3--5-5-5-5-5-5-5--0--------3-5-3-|
E|--------------------------------------------------------------0-3-5-------|
                 x x x x x x     x x x x x x    x x x x x x

e|--------------------------------------------------------------------------|
B|--------------------------------------------------------------------------|
G|--------------------------------------------------------------------------|
D|--2--------------5--------------3-5-2-----------------2--------------5----|
A|--0-0-0-0-0-0-0--3-3-3-3-3-3-3--3-5-0--------b5(6)-3--0-0-0-0-0-0-0--3-3-3|
E|--------------------------------1-3----0-3-5------------------------------|
      x x x x x x    x x x x x x                          x x x x x x    x x

e|--------------------------------------------------------------------------|
B|--------------------------------------------------------------------------|
G|--------------------------------------------------------------------------|
D|-----------7--------------2----------------2--------------5---------------|
A|--3-3-3-3--5-5-5-5-5-5-5--0--------3-5-3---0-0-0-0-0-0-0--3-3-3-3-3-3-----|
E|-----------------------------0-3-5----------------------------------------|
    x x x x    x x x x x x                     x x x x x x    x x x x x
e|--------------------------------------------------------------------------|
B|--------------------------------------------------------------------------|
G|--------------------------------------------------------------------------|
D|--3-5-2-------------------------------------------------------------------|
A|--3-5-0-------------------------------------------------------------------|
E|--1-3--------------------------------------------------------------------|

Pre solo and solo
e|--------------------------------------------5--------5--------------5h8p5-|
B|------------------------------------------5---b8(10)---8-b8(10)---8-------|
G|--10-5--9-3---------------5h7p5---5-b7(9)---------------------------------|
D|--10-5--9-3-----------7~~-------7-----------------------------------------|
A|--8--3--7-1-------5-7-----------------------------------------------------|
E|--------------5-8---------------------------------------------------------|

e|----5h8p5---5h8p5---5h8p5---5-8p5-7p5---5---------------------------------|
B|--8-------8-------8-------8-----------8---8-5h8p5---5---------------------|
G|--------------------------------------------------7---br7(9)-br7(9)-5h7p5-|
D|--------------------------------------------------------------------------|
A|--------------------------------------------------------------------------|
E|--------------------------------------------------------------------------|

e|---------------------5-5------5-5------5-5------5-5------5-5-----5-5-5-5-5|
B|----7-5--------------5-5------5-5------5-5------5-5------5-5-----5-5-5-5-5|
G|----7-5--(5)---b7(9)-----7b(9)----b7(9)----b7(9)----b7(9)-----------------|
D|--7-----------------------------------------------------------------------|
A|--------------------------------------------------------------------------|
E|--------------------------------------------------------------------------|
            +
e|--7-7-7-7-7-8-8-8-8-8-10-10-10-10-10-12-12-12-12-12-----------------------|
B|--7-7-7-7-7-8-8-8-8-8-10-10-10-10-10-12-12-12-12-12---br17(19)------------|
G|--------------------------------------------------------------------------|
D|--------------------------------------------------------------------------|
A|--------------------------------------------------------------------------|
E|--------------------------------------------------------------------------|

Final
e|----------------------------5h8p5---5hp8----------------------------------|
B|---------------------b8(10)-------8------8-5h8p5--------------------------|
G|-------5-7---------------------------------------7-5h7p5---(5)----2-------|
D|--3-5--5-7--3-5--2---------------------------------------7-(5)----2-------|
A|--3-5--3-5--3-5--0------------------------------------------------0-------|
E|--1-3-------1-3-----------------------------------------------------------|
                                                              +
                                                              
************************************

| /   slide up
| \   slide down
| h   hammer-on
| p   pull-off
| ~   vibrato
| +   harmonic
| x   Mute note
| b   Bend
| pb  Pre-bend
| br  Bend release
| pbr Pre-bend release
| brb Bend release bend

************************************
Tap to rate this tab
# A B C D E F G H I J K L M N O P Q R S T U V W X Y Z