Song name
# A B C D E F G H I J K L M N O P Q R S T U V W X Y Z

Riot - Dont Bring Me Down tab

From Fire Down Under

E|---------------------------|---------------------------------|---------------------------|
B|---------------------------|---------------------------------|---------------------------|
G|---------------------------|---------------------------------|---------------------------|
D|---------------------------|---------------------------------|---------------------------|
A|-------------7----0---5----|-0-------------------------------|-7----0---5----0-----------|
E|-0---3---5-----------------|-----5---3---0-------0---3---5---|-------------------5---3---|


E|------------------------------|------------------------------|--------|-------------|
B|------------------------------|------------------------------|--------|-------------|
G|------------------------------|------------------------------|--------|-------------|
D|------------------------------|------------------------------|--------|-9-----7-----|
A|-7-------------------7----0---|-5----0-----------------------|-7------|-7-----5-----|
E|---------0---3---5------------|----------5---3---0-----------|-5------|-------------|
Tap to rate this tab
# A B C D E F G H I J K L M N O P Q R S T U V W X Y Z