Song name
# A B C D E F G H I J K L M N O P Q R S T U V W X Y Z

Riot - Road Racin tab

Riot - Road Racin'


INTRO
------------------------------------------------------------------------------|
------------------------------------------------------------------------------|
--------------------------7--9----------------------------7-7--9--------------|
--------------------------7--9----------------------------7-7--9--------------|
--------------------------5--7----------------------------5-5--7--------------|
-0-0-3-0-2-0-0-0-3-0-2-0--------0-0-3-0-2-0-0-0-3-0-2-0-----------------------|X4


VERSE
-----------------------------------------------------------------------------|
-----------------------------------------------------------------------------|
------------------------------------------5----7--9--------------------------|
-------------------------------------5----5----7--9--------------------------|
-------------------------------------5----3----5--7--------------------------|
-0-0-0-0-0-0-0-0-0-0-0-0-0-0-0-0-0-0-3---------------------------------------|
 pm. . . . . . . . . . . . . . . . .

------------------------------------------------------------------------------|
------------------------------------------------------------------------------|
------------------------------------------5----7------5-----------------------|
-------------------------------------5----5----7-5----5----7----9----10----12-|
-------------------------------------5----3----5-5----3----7----9----10----12-|
-0-0-0-0-0-0-0-0-0-0-0-0-0-0-0-0-0-0-3-----------3---------5----7----8-----10-|
 pm. . . . . . . . . . . . . . . . .



BRIDGE
---------------------------------------------------|
---------------------------------------------------|
---------------------------------------------------|
--------9---------7---------9---------7-7----------|
--------9---------7---------9---------7-7----------|
-3-2-0--7--3-2-0--5--3-2-0--7--3-2-0--5-5----------|X2

-----------------------------|
-----------------------------|
-----------------------------|
-7----5----4----2----5-7-----|
-7----5----4----2----5-7-----|
-5----3----2----0----3-5-----|X8

-----------------------------|
-----------------------------|
-----------------------------|
-7----9----10---12-----------|
-7----9----10---12-----------|
-5----7----8----10-----------|X2
Tap to rate this tab
# A B C D E F G H I J K L M N O P Q R S T U V W X Y Z