Song name
# A B C D E F G H I J K L M N O P Q R S T U V W X Y Z

Riot - Altar Of The King tab

----------------------------------------------------------------------------
			   Altar of the King - Riot
----------------------------------------------------------------------------
Tabbed by:Jon Treen	
Email:Jtreen37xc@yahoo.com

Tuning:Normal

e|----------0-1-0------------------------0-1-0----------------|
B|------1-3-------3------------------1-3-------3--------------|
G|----2-------------4-4-5-7-4-2-----2------------4-4-5-7-4----|
D|---2-----------------------------2--------------------------|
A|-0------------------------------0---------------------------|
E|------------------------------0-----------------------------|

e|------------------------------------3-----------------------|
B|-1-3-1-3-5-3-3-5-3-5-1-0-1-0------1-------------------------|
G|--0-0-0-----0---0-----------0-4-5-2-------------------------|
D|----------------------------------2-------------------------|
A|----------------------------------0-1-----------------------|
E|------------------------------------3-----------------------|

e|----------0-1-0------------------------0-1-0----------------|
B|------1-3-------3------------------1-3-------3--------------|
G|----2-------------4-4-5-7-4-2-----2------------4-4-5-7-4----|
D|---2-----------------------------2--------------------------|
A|-0------------------------------0---------------------------|
E|------------------------------0-----------------------------|


e|------------------------------------3-----------------------|
B|-1-3-1-3-5-3-3-5-3-5-1-0-1-0------1---1~--------------------|
G|--0-0-0-----0---0-----------0-4-5-2---2~--------------------|
D|----------------------------------2---2~--------------------|
A|----------------------------------0-1-0~--------------------|
E|------------------------------------3-----------------------|



| /  slide up
| \  slide down
| h  hammer-on
| p  pull off
| ~  vibrato
| +  harmonic
| x  Mute note
============================================================================
Tap to rate this tab
 
# A B C D E F G H I J K L M N O P Q R S T U V W X Y Z