Song name
# A B C D E F G H I J K L M N O P Q R S T U V W X Y Z

Rip Slyme - Rakuen Baby tab

*band website  http://www.ripslyme.com/
*use you index finger to bar whilst playing the intro and chorus
*the riff is distorted throughout the whole song
Intro:
e|-------------------------------------------------------------------|
b|------4-------------6------------7-------------4-------------3-----|
g|----4---4---------6---6--------7---7---------4---4---------3---3---|
d|--6-------6-----8------8-----9-------9-----6-------6-----5-------5-|
a|4-------------6------------7-------------4-------------3-----------|
e|-------------------------------------------------------------------|

  -------------------------------------------------------------------|
  ------3------|2--|-------------------------------------------------|
  ----2---2----|2-3|-------------------------------------------------|
  --4-------4--|2-5|-------------------------------------------------|
  2------------|2--|-------------------------------------------------|
  -------------------------------------------------------------------|

Chorus:xxxx=repeat as many times played in song
e|-------------------------------------------------------------------|
b|4----x-----6----x-----7----x-----4----x-----3----x-----2----x------|
g|4-6--x-----6-8--x-----7-9--x-----4-6--x-----3-5--x-----2-4--x------|
d|4-6--x-----6-8--x-----7-9--x-----4-6--x-----3-5--x-----2-4--x------|
a|4----x-----6----x-----7----x-----4----x-----3----x-----2----x------|
e|-------------------------------------------------------------------|

The chorus is basically played throughout the rest of the song
Tap to rate this tab
 
# A B C D E F G H I J K L M N O P Q R S T U V W X Y Z