Song name
# A B C D E F G H I J K L M N O P Q R S T U V W X Y Z

Ripping Corpse - Seduction Of The Innocent tab

Help us improve GuitareTab! Take a short survey!
#----------------------------------PLEASE NOTE--------------------------------#
#This file is the author's own work and represents their interpretation of the#
#song. You may only use this file for private study, scholarship, or research.#
#-----------------------------------------------------------------------------#

Date: Fri, 20 Mar 1998 01:38:35 EST
From: MickelJFox 
Subject: TAB: "Seduction of the Innocent by Ripping Corpse"


"Seduction of the Innocent" by Ripping Corpse
transcribed by James Lassen


-8-7-0------------------------------------------------------|
---------8-7-0-11-9-0---------------------------------------|
---------------------------9-8-0-11-9-0-0-repeat------------|
------------------------------------------------------------|
------------------------------------------------------------|
------------------------------------------------------------|


(drum part)


-------------------------------------------------|
-------------------------------------------------|
-------------------------------------------------|
----------------1-1-1-----------------0-0-0------|
--------2-2-2-----------------1-1-1--------------|
0-0-0-----------------0-0-0----------------------|

-------------------------------------------------|
-------------------------------------------------|
-------------------------------------------------|
----------------1-1-1----------------------------|
--------2-2-2-----------------2-2-2--------------|
0-0-0-----------------3-3-3---------2-2-2--------|


-------------------------------------------------|
----------------------------------------5-5-5----|
----------------3-3-3---------3-3-3--------------|
--------2-2-2---------2-2-2----------------------|
1-1-1--------------------------------------------|
-------------------------------------------------|

--------------------------------------------------|
3-3-3-----------------2-2-2-----------------------|
---------3-3-3-----------------2-2-2--------------|
-----------------4-4-4-----------------3-3-3------|
--------------------------------------------------|
--------------------------------------------------|

-------------------------------------------------|
----------------------------------------5-5-5----|
----------------3-3-3---------3-3-3--------------|
--------2-2-2---------2-2-2----------------------|
1-1-1--------------------------------------------|
-------------------------------------------------|

----------------------------------|
3-3-3-----------------2-3---------|trill
---------3-3-3--------------------|
-----------------4-4-4------------|
----------------------------------|
----------------------------------|
Related for Seduction Of The Innocent tab