Song name
# A B C D E F G H I J K L M N O P Q R S T U V W X Y Z

Rippingtons - Tourist In Paradise tab

-------------------------------------------------------------------------------
		           Tourist in Paradise- The Rippingtons
-------------------------------------------------------------------------------
Tabbed by: efee12
Email: rjabeast12@aim.com

Tuning: Standard

e|----13---11---9---------------------------------------------------------|
B|----14---12---10--------------------------------------------6-----------|
G|------------------------------------5----3---------------7-----7--5--3--|
D|---------------------------5--------5----3------------------------------|
A|---------------------------5--------3----1------------------------------|
E|---------------------------3--------------------------------------------|

Chorus
e|-------------------------------------------------------------------------|
B|-------------------------------------------------------------------------|
G|---7------5------5--10--5--3----------5-----3----------------------------|
D|---7------5------5--10--5--3-----5----5-----3----------------------------|
A|---5------3------3--8---3--1-----5----3-----1----------------------------|
E|---------------------------------3---------------------------------------|

Solo
e|-------------------------------------------------------------------------|
B|----------5--3h5p3-----------------------------------21-19-17-15---------|
G|------5h7-------------------11-12--------11-12---------------------------|
D|----------------------12-14-------12-14--------14------------------------|
A|-------------------------------------------------------------------------|
E|-------------------------------------------------------------------------|

e|-------------------------------------------------------------------------|
B|-----15-17----15-17------------------------------------------------------|
G|-----------17--------17-15-14--------------------------------------------|
D|------------------------------17-----------------------------------------|
A|-------------------------------------------------------------------------|
E|-------------------------------------------------------------------------|

Solo (with sax tradeoff)
e|--------------------------------------------------------20---20-18-------|
B|-------------------------------------------------------------------------|
G|--------5-5-3-3-5--------------------------------------------------------|
D|----5h7-----------------12--10-10--8h10p8--------------------------------|
A|-------------------------------------------------------------------------|
E|-------------------------------------------------------------------------|

e|-------------------------------------------------------------------------|
B|------------16-----------------------------------------------------------|
G|---------17----17-16-15--------------------------------------------------|
D|------------------------17-16-15-----------------------------------------|
A|---------------------------------17--------------------------------------|
E|-------------------------------------------------------------------------|




| /  slide up
| \  slide down
| h  hammer-on
| p  pull-off
| ~  vibrato
| +  harmonic
| x  Mute note
Tap to rate this tab
# A B C D E F G H I J K L M N O P Q R S T U V W X Y Z