Ripple Effect - Heres The Song Well Name It Later tab

This is the Rhythm Tab of, "Here's the Song, We'll Name it Later"

Intro/Main Riff *x4 3rd Time Slow Strum
e-----------------------------------------------------------------------|
B-----------------------------------------------------------------------|
G-5-5-5-5-5-5-5-5-------------------------------------------------------|
D-5-5-5-5-5-5-5-5---5-5-5-5-5-5-5-5---3-3-3-3-3-3-3-3---5-5-5-5-5-5-5-5-|
A-3-3-3-3-3-3-3-3---5-5-5-5-5-5-5-5---3-3-3-3-3-3-3-3---5-5-5-5-5-5-5-5-|
E-------------------3-3-3-3-3-3-3-3---1-1-1-1-1-1-1-1---3-3-3-3-3-3-3-3-|

Hold last for 4 beats

Verse 
e-----------------------------------------------------------------------|
B-----------------------------------------------------------------------|
G-----------------------------------------------------------------------|
D-3-3-3-3-3-3-3-3-3-3-3-3-3-3-3-3---7-7-7-7-7-7-7-7-7-7-7-7-7-7-7-7-----|
A-3-3-3-3-3-3-3-3-3-3-3-3-3-3-3-3---7-7-7-7-7-7-7-7-7-7-7-7-7-7-7-7-----|
E-1-1-1-1-1-1-1-1-1-1-1-1-1-1-1-1---5-5-5-5-5-5-5-5-5-5-5-5-5-5-5-5-----|

e-----------------------------------------------------------------------|
B-----------------------------------------------------------------------|
G--------------------5-5-5-5-5-5-5-5-5-5-5-5-5-5-5-5--------------------|
D-55-xx-55-xx-55-x-7-5-5-5-5-5-5-5-5-5-5-5-5-5-5-5-5--------------------|
A-55-xx-55-xx-55-x-7-3-3-3-3-3-3-3-3-3-3-3-3-3-3-3-3--------------------|
E-33-xx-33-xx-33-x-5----------------------------------------------------|

e-----------------------------------------------------------------------|
B-----------------------------------------------------------------------|
G-----------------------------------------------------------------------|
D-3-3-3-3-3-3-3-3-3-3-3-3-3-3-3-3---7-7-7-7-7-7-7-7-7-7-7-7-7-7-7-7-----|
A-3-3-3-3-3-3-3-3-3-3-3-3-3-3-3-3---7-7-7-7-7-7-7-7-7-7-7-7-7-7-7-7-----|
E-1-1-1-1-1-1-1-1-1-1-1-1-1-1-1-1---5-5-5-5-5-5-5-5-5-5-5-5-5-5-5-5-----|

e-----------------------------------------------------------------------|
B-----------------------------------------------------------------------|
G-----------------------------------------------------------------------|
D-55-xx-55-xx-55-x-7----------------------------------------------------|
A-55-xx-55-xx-55-x-7----------------------------------------------------|
E-33-xx-33-xx-33-x-5----------------------------------------------------|

Chorus x4
e-----------------------------------------------------------------------|
B-----------------------------------------------------------------------|
G-5-5-5-5-5-5-5-5-5-5-5-5-5-5-5-5---------------------------------------|
D-5-5-5-5-5-5-5-5-5-5-5-5-5-5-5-5---5-5-5-5-5-5-5-5---3-3-3-3-3-3-3-3---|
A-3-3-3-3-3-3-3-3-3-3-3-3-3-3-3-3---5-5-5-5-5-5-5-5---3-3-3-3-3-3-3-3---|
E-----------------------------------3-3-3-3-3-3-3-3---1-1-1-1-1-1-1-1---|

Intro 1/2
e-----------------------------------------------------------------------|
B-----------------------------------------------------------------------|
G-5-5-5-5-5-5-5-5-------------------------------------------------------|
D-5-5-5-5-5-5-5-5---5-5-5-5-5-5-5-5---3-3-3-3-3-3-3-3---5-5-5-5-5-5-5-5-|
A-3-3-3-3-3-3-3-3---5-5-5-5-5-5-5-5---3-3-3-3-3-3-3-3---5-5-5-5-5-5-5-5-|
E-------------------3-3-3-3-3-3-3-3---1-1-1-1-1-1-1-1---3-3-3-3-3-3-3-3-|

Hold last for 4 beats

Verse 
e-----------------------------------------------------------------------|
B-----------------------------------------------------------------------|
G-----------------------------------------------------------------------|
D-3-3-3-3-3-3-3-3-3-3-3-3-3-3-3-3---7-7-7-7-7-7-7-7-7-7-7-7-7-7-7-7-----|
A-3-3-3-3-3-3-3-3-3-3-3-3-3-3-3-3---7-7-7-7-7-7-7-7-7-7-7-7-7-7-7-7-----|
E-1-1-1-1-1-1-1-1-1-1-1-1-1-1-1-1---5-5-5-5-5-5-5-5-5-5-5-5-5-5-5-5-----|

e-----------------------------------------------------------------------|
B-----------------------------------------------------------------------|
G--------------------5-5-5-5-5-5-5-5-5-5-5-5-5-5-5-5--------------------|
D-55-xx-55-xx-55-x-7-5-5-5-5-5-5-5-5-5-5-5-5-5-5-5-5--------------------|
A-55-xx-55-xx-55-x-7-3-3-3-3-3-3-3-3-3-3-3-3-3-3-3-3--------------------|
E-33-xx-33-xx-33-x-5----------------------------------------------------|

e-----------------------------------------------------------------------|
B-----------------------------------------------------------------------|
G-----------------------------------------------------------------------|
D-3-3-3-3-3-3-3-3-3-3-3-3-3-3-3-3---7-7-7-7-7-7-7-7-7-7-7-7-7-7-7-7-----|
A-3-3-3-3-3-3-3-3-3-3-3-3-3-3-3-3---7-7-7-7-7-7-7-7-7-7-7-7-7-7-7-7-----|
E-1-1-1-1-1-1-1-1-1-1-1-1-1-1-1-1---5-5-5-5-5-5-5-5-5-5-5-5-5-5-5-5-----|

e-----------------------------------------------------------------------|
B-----------------------------------------------------------------------|
G-----------------------------------------------------------------------|
D-55-xx-55-xx-55-x-7----------------------------------------------------|
A-55-xx-55-xx-55-x-7----------------------------------------------------|
E-33-xx-33-xx-33-x-5----------------------------------------------------|

Chorus x4
e-----------------------------------------------------------------------|
B-----------------------------------------------------------------------|
G-5-5-5-5-5-5-5-5-5-5-5-5-5-5-5-5---------------------------------------|
D-5-5-5-5-5-5-5-5-5-5-5-5-5-5-5-5---5-5-5-5-5-5-5-5---3-3-3-3-3-3-3-3---|
A-3-3-3-3-3-3-3-3-3-3-3-3-3-3-3-3---5-5-5-5-5-5-5-5---3-3-3-3-3-3-3-3---|
E-----------------------------------3-3-3-3-3-3-3-3---1-1-1-1-1-1-1-1---|

Bridge x4
e-----------------------------------------------------------------------|
B-----------------------------------------------------------------------|
G-55----------------55--------------------------------------------------|
D-55-55-77-33-77-55-55-55-77-33-77-55-----------------------------------|
A-33-55-77-33-77-55-33-55-77-33-77-55-----------------------------------|
E----33-55-11-55-33----33-55-11-55-33-----------------------------------|

Intro/Main Riff *x4 3rd Time Slow Strum
e-----------------------------------------------------------------------|
B-----------------------------------------------------------------------|
G-5-5-5-5-5-5-5-5-------------------------------------------------------|
D-5-5-5-5-5-5-5-5---5-5-5-5-5-5-5-5---3-3-3-3-3-3-3-3---5-5-5-5-5-5-5-5-|
A-3-3-3-3-3-3-3-3---5-5-5-5-5-5-5-5---3-3-3-3-3-3-3-3---5-5-5-5-5-5-5-5-|
E-------------------3-3-3-3-3-3-3-3---1-1-1-1-1-1-1-1---3-3-3-3-3-3-3-3-|

Hold last for 4 beats

Chorus x2
e-----------------------------------------------------------------------|
B-----------------------------------------------------------------------|
G-5-5-5-5-5-5-5-5-5-5-5-5-5-5-5-5---------------------------------------|
D-5-5-5-5-5-5-5-5-5-5-5-5-5-5-5-5---5-5-5-5-5-5-5-5---3-3-3-3-3-3-3-3---|
A-3-3-3-3-3-3-3-3-3-3-3-3-3-3-3-3---5-5-5-5-5-5-5-5---3-3-3-3-3-3-3-3---|
E-----------------------------------3-3-3-3-3-3-3-3---1-1-1-1-1-1-1-1---|
Fret 15 x32 after chorus twice

Intro/Main Riff *x4 3rd Time Slow Strum
e-----------------------------------------------------------------------|
B-----------------------------------------------------------------------|
G-5-5-5-5-5-5-5-5-------------------------------------------------------|
D-5-5-5-5-5-5-5-5---5-5-5-5-5-5-5-5---3-3-3-3-3-3-3-3---5-5-5-5-5-5-5-5-|
A-3-3-3-3-3-3-3-3---5-5-5-5-5-5-5-5---3-3-3-3-3-3-3-3---5-5-5-5-5-5-5-5-|
E-------------------3-3-3-3-3-3-3-3---1-1-1-1-1-1-1-1---3-3-3-3-3-3-3-3-|

Hold last for 4 beats

THEN BREAK-OUT!!!
Tap to rate this tab
 
# A B C D E F G H I J K L M N O P Q R S T U V W X Y Z