Song name
# A B C D E F G H I J K L M N O P Q R S T U V W X Y Z

Riptides - Dawn Of The Dead tab

Help us improve GuitareTab! Take a short survey!
Artist: Does it Offend You, Yeah?
Song: Dawn of the Dead
Album: You Have No Idea What You're Getting Yourself Into

Drop D

Synth Riff:
e|--11-----9----------|
B|-----12-----12------|
G|--------------------| x11
D|--------------------|
A|--------------------|
D|--------------------|

Guitar Verse and Chorus:
e|--------------------------------------------------------------------|
B|-7-7-7-9-9-9-9------------------------------------------------------|
G|---------------8-8-8-8-9-9-9-9-9-8-9-9-9-9-9-9-9-9-9-9-9-9-9-9-9-9--|
D|--------------------------------------------------------------------|
A|--------------------------------------------------------------------|
D|--------------------------------------------------------------------|

e|-6-6-6-7-7-7-7------------------------------------------------------|
B|---------------7-7-7-7-9-9-9-9--------------------------------------|
G|-------------------------------8-9-9-9-9-9-9-9-9-9-9-9-9-9-9-9-9-9--|
D|--------------------------------------------------------------------|
A|--------------------------------------------------------------------|
D|--------------------------------------------------------------------|


Bass Verse:
e|--------------------------------------------------------------------|
B|--------------------------------------------------------------------|
G|--------------------------------------------------------------------|
D|--------------------------------------------------------------------|
A|-4-4---6---------1-1-1---2-------1-2---2---1---2------------1-1-----|
D|-4-4---6---------1-1-1---2-------1-2---2---1---2------------1-1-----|

e|--------------------------------------------------------------------|
B|--------------------------------------------------------------------|
G|--------------------------------------------------------------------|
D|--------------------------------------------------------------------|
A|-8-8---9---------4-4-4---6-------1-2--x2--x1h2-2----------2-2-1-1-1-|
D|-8-8---9---------4-4-4---6-------1-2--x2--x1h2-2----------2-2-1-1-1-|

Bass Chorus:
e|--------------------------------------------------------------------|
B|--------------------------------------------------------------------|
G|--------------------------------------------------------------------|
D|--------------------------------------------------------------------|
A|--------------------------------------------------------------------|
D|-4-4-4-6-6-6-6-1-1-1-1-2-2-2-2-2-1-2-2-2-2-2-2-2-2-2-2-2-2-2-2-2-1--|

e|--------------------------------------------------------------------|
B|--------------------------------------------------------------------|
G|--------------------------------------------------------------------|
D|--------------------------------------------------------------------|
A|--------------------------------------------------------------------|
D|-8-8-8-9-9-9-9-4-4-4-4-6-6-6-6-6-1-2-2-2-2-2-2-2-2-2-2-2-2-2-2-2-1--|


Like the men that were before me, he said
the dawn of the dead came toward me, Im afraid
You could try again but theyll ignore you, and me
I want to sit down and say that will do, Im afraid

Chorus:
Today I stood and walked away
Im never coming back this way
Ive got my things, Im here to stay
Ill try to pull the night away

If you say so
Ill leave home, Ill leave home
If you say so
Ill leave home, Ill leave home

Like the dead that walk before me therein
I cant believe that you ignore me, such a shame
I didnt come here to try to hurt you, you hurt me
Ill never sit back and say thatll do, Im afraid

Chorus:
Today I stood and walked away
Im never coming back this way
Ive got my things, Im here to stay
Ill try to pull the night away

If you say so
Ill leave home, Ill leave home
If you say so
Ill leave home, Ill leave home, Ill leave home

Chorus:
Today I stood and walked away
Im never coming back this way
Ive got my things, Im here to stay
Ill try to walk another way (x2)

If you say so
Ill leave home, Ill leave home
If you say so
Ill leave home, Ill leave home, Ill leave home
Related for Dawn Of The Dead tab