Riptides - Return To Blood Beach tab

Return to Blood Beach - The Riptides
Tabbed By: Ryan Warren
Tuning: E Standard (EADGBe)

These tabs may look a little weird because I copied and pasted but I tried to fix 
them the best I could.

|--------------------------------------------------------------------------|   INTRO (0:00)
|--------------------------------------------------------------------------|
|--------------------------------------------------------------------------|
|--------------------------------------------------------------------------|
|--------------2--2--0--0--------------------------2--2--0--0--------------|
|--0--2--3--0--------------3--3--2--2--0--2--3--0--------------3--3--2--2--|

|-----------------------------------------------------------------------------| VERSE Pt. 1 (0:07)
|-----------------------------------------------------------------------------|
|-----------------------------------------------------------------------------|
|-----------------------------------------------------------------------------|
|--------------2--2--0--0--------------3--3--3--3--0--2--2--0--0--------------|
|--0--2--3--0--------------3--3--2--0-----------------------------3--3--2--2--|

|-----------------------------------------------------------------------------|    
|-----------------------------------------------------------------------------|
|-----------------------------------------------------------------------------|
|-----------------------------------------------------------------------------|
|--------------2--2--0--0--------------3--3--3--3--0--2--2--0--0--------------|
|--0--2--3--0--------------3--3--2--0-----------------------------3--3--2--0--|



|---------------------------------------------------------|     VERSE Pt. 2 (0:21)
|---------------------------------------------------------|
|---------------------------------------------------------|
|--0--0-----0----2--0-----0-------------------------------|
|--------3-----3-------3-----0-2--2--0--2--0--3--2--0-----|
|------------------------------------------------------3--|

|----------------------------------------------------------------|
|----------------------------------------------------------------|
|----------------------------------------------------------------|
|--0--0-----0----2--0-----0--------------------------------------|
|--------3-----3-------3-----0--0--0--0--2--2--0--0--------------|
|----------------------------------------------------3--3--2--2--|

Repeat all of the above once more

|--------------|   INTERLUDE (1:13)
|--------------|
|--------------|
|--------------|
|--------------|
|--3--3--2--0--|

|--------------|   
|--------------|
|--------------|
|--------------|
|--------------|
|--3--3--2--0--|

|--------------|  
|--------------|
|--------------|
|--------------|
|--------------|
|--3--3--2--0--|

|--------| speedpick this slide
|--------|
|--------|
|--------|
|--------|
|--12s0--|

then play verse 1 pt. 1 and 2

|--------------------------------------|    OUTRO (1:52)
|--------------------------------------|
|--------------------------------------|
|--------------------------------------|
|--------------------------------------|
|--0--2--3--2--0--0--2--2--3--3--2--2--|

PLay outro 4 times

questions or comments?

www.ryanwarren@yahoo.com
Tap to rate this tab
 
# A B C D E F G H I J K L M N O P Q R S T U V W X Y Z