Song name
# A B C D E F G H I J K L M N O P Q R S T U V W X Y Z

Rise Against - Re-education tab

Band: Rise Against
Song: Re-Education
Album: Appeal To Reason
Tabbed By: chromaticvision




Tim McIlrath - Guitar One



                                      Q    E   E   E  E  E  E   
D#||-------|-------|-------|-------|---------------------------|
A#||-------|-------|-------|-------|---------------------------|
F#||-------|-------|-------|-------|--9----9--12--12--7--7--9--|
C#||-------|-------|-------|-------|--9----9--10--10--5--5--7--|
G#||-------|-------|-------|-------|--7----7-------------------|
D#||-------|-------|-------|-------|---------------------------|


  E  E  E   E   E  E  E  E     Q    E   E   E  E  E  E   
----------------------------|---------------------------|
----------------------------|---------------------------|
--9--9--9--12--12--7--7--9--|--9----9--12--12--7--7--9--|
--9--9--9--10--10--5--5--7--|--9----9--10--10--5--5--7--|
--7--7--7-------------------|--7----7-------------------|
----------------------------|---------------------------|


  E  E  E   E   E  E  E  E     Q    E  E  E  E  S  S S  S  
----------------------------|-----------------------------|
----------------------------|-----------------------------|
--9--9--9--12--12--7--7-----|-----------------------------|
--9--9--9--10--10--5--5-----|----------5--L--7--5p-4------|
--7--7--7-------------------|--7----5----------------7p-5-|
----------------------------|-----------------------------|


  Q    E  E  E  E  S  S  S  S    Q    E  E  E  E  S  S  S  S  
------------------------------|------------------------------|
------------------------------|------------------------------|
------------------------------|------------------------------|
----------5--L--7--5p-4h------|----------5--L--7--5p-4h------|
--7----5-----------------7p-5-|--7----5-----------------7p-5-|
------------------------------|------------------------------|


  Q    E  E  E  E  E  E     Q    E  E  E  E  S  S S  S  
-------------------------|-----------------------------|
-------------------------|-----------------------------|
-------------------------|-----------------------------|
----------5--L-----------|----------5--L--7--5p-4------|
--7----5--------5--5-----|--7----5----------------7p-5-|
-------------------------|-----------------------------|


  Q    E  E  E  E  S  S  S  S    Q    E  E  E  E  S  S S  S  
------------------------------|-----------------------------|
------------------------------|-----------------------------|
------------------------------|-----------------------------|
----------5--L--7--5p-4h------|----------5--L--7--5p-4------|
--7----5-----------------7p-5-|--7----5----------------7p-5-|
------------------------------|-----------------------------|


  Q    E  E  E  E  S  S  S  S    E  E  Q    H                     
------------------------------|----------------------|-----------|
------------------------------|----------------------|-----------|
------------------------------|----------------------|-----------|
----------5--L--7--5p-4h------|----------------------|-----------|
--7----5-----------------7p-5-|--7-------------------|-----------|
------------------------------|----------------------|-----------|


  Q    E   E   E  E  E  E     E  E  E   E   E  E  E  E     W                 
---------------------------|----------------------------|-------------------|
---------------------------|----------------------------|-------------------|
--9----9--12--12--7--7--9--|--9--9--9--12--12--7--7--9--|-------------------|
--9----9--10--10--5--5--7--|--9--9--9--10--10--5--5--7--|--2----------------|
--7----7-------------------|--7--7--7-------------------|--2----------------|
---------------------------|----------------------------|--0----------------|


  W                   Q    E   E   E  E  E  E     E  E  E   E   E  E  E  E   
-------------------|---------------------------|----------------------------|
-------------------|---------------------------|----------------------------|
-------------------|--9----9--12--12--7--7--9--|--9--9--9--12--12--7--7--9--|
--L----------------|--9----9--10--10--5--5--7--|--9--9--9--10--10--5--5--7--|
--L----------------|--7----7-------------------|--7--7--7-------------------|
--L----------------|---------------------------|----------------------------|


  E  E  E  E  E  E  E  E     E  E  E  E  E  E  E   E   
--------------------------|---------------------------|
--------------------------|---------------------------|
--9--9-----9--9--9-----9--|--9--9-----9--9--9--9--12--|
--x--x-----x--x--x-----x--|--x--x-----x--x--x--x---x--|
--7--7-----7--7--7-----7--|--7--7-----7--7--7--7--10--|
--------------------------|---------------------------|


  E  E  E  E  E  E  E  E     E  E  E  E  E  E  E   E   
--------------------------|---------------------------|
--------------------------|---------------------------|
--9--9-----9--9--9-----9--|--9--9-----9--9--9--9--12--|
--x--x-----x--x--x-----x--|--x--x-----x--x--x--x---x--|
--7--7-----7--7--7-----7--|--7--7-----7--7--7--7--10--|
--------------------------|---------------------------|


  E  E  E  E  E  E  E  E     E  E  E  E  E  E  E  E   
--------------------------|--------------------------|
--------------------------|--------------------------|
--5--5-----5--5--5-----5--|--5--5-----5--5--5--5--5--|
--5--5-----5--5--5-----5--|--5--5-----5--5--5--5--5--|
--3--3-----3--3--3-----3--|--3--3-----3--3--3--3--3--|
--------------------------|--------------------------|


  E  E  E  E  E  E  E  E     E  E  Q    H           Q    Q    Q    Q     
--------------------------|----------------------|----------------------|
--------------------------|----------------------|----------------------|
--7--7--7--7--7--7--7--7--|--7-------------------|----------------------|
--7--7--7--7--7--7--7--7--|--7-------------------|--2----2----2----2----|
--5--5--5--5--5--5--5--5--|--5-------------------|--2----2----2----2----|
--------------------------|----------------------|--0----0----0----0----|


  Q    Q    Q    Q       Q    Q    Q    Q       Q    Q    Q    Q     
----------------------|----------------------|----------------------|
----------------------|----------------------|----------------------|
----------------------|--7----7----7----7----|--2----2----2----2----|
--5----5----5----5----|--7----7----7----7----|--2----2----2----2----|
--5----5----5----5----|--5----5----5----5----|--0----0----0----0----|
--3----3----3----3----|----------------------|----------------------|


  Q    Q    Q    Q       Q    Q    Q    Q       Q    Q    Q    Q     
----------------------|----------------------|----------------------|
----------------------|----------------------|----------------------|
----------------------|----------------------|--2----2----2----2----|
--2----2----2----2----|--7----7----7----7----|--2----2----2----2----|
--2----2----2----2----|--5----5----5----5----|--0----0----0----0----|
--0----0----0----0----|----------------------|----------------------|


  Q    Q    Q    Q       E  E  E  E  E  E  E  E     E  E  E  E  E  E  E  E   
----------------------|--------------------------|--------------------------|
----------------------|--------------------------|--------------------------|
--5----5----5----5----|--------------------------|--------------------------|
--5----5----5----5----|--2--2--2--2--2--2--2--2--|--5--5--5--5--5--5--5--5--|
--3----3----3----3----|--2--2--2--2--2--2--2--2--|--5--5--5--5--5--5--5--5--|
----------------------|--0--0--0--0--0--0--0--0--|--3--3--3--3--3--3--3--3--|


  E  E  E  E  E  E  E  E     E  E  E  E  E  E  E  E   
--------------------------|--------------------------|
--------------------------|--------------------------|
--7--7--7--7--7--7--7--7--|--2--2--2--2--2--2--2--2--|
--7--7--7--7--7--7--7--7--|--2--2--2--2--2--2--2--2--|
--5--5--5--5--5--5--5--5--|--0--0--0--0--0--0--0--0--|
--------------------------|--------------------------|


  E  E  E  E  E  E  E  E     E  E  E  E  E  E  E  E   
--------------------------|--------------------------|
--------------------------|--------------------------|
--------------------------|--------------------------|
--2--2--2--2--2--2--2--2--|--7--7--7--7--7--7--7--7--|
--2--2--2--2--2--2--2--2--|--5--5--5--5--5--5--5--5--|
--0--0--0--0--0--0--0--0--|--------------------------|


  E  E  E  E  E  E  E  E     E  E  E  E  E  E  E  E   
--------------------------|--------------------------|
--------------------------|--------------------------|
--2--2--2--2--2--2--2--2--|--5--5--5--5--5--5--5--5--|
--2--2--2--2--2--2--2--2--|--5--5--5--5--5--5--5--5--|
--0--0--0--0--0--0--0--0--|--3--3--3--3--3--3--3--3--|
--------------------------|--------------------------|


  E  E  E   E   E  E  E  E     E  E  E   E   E  E  E  E   
----------------------------|----------------------------|
----------------------------|----------------------------|
-----------12--12--7--7--9--|-----------12--12--7--7--9--|
--9--9--9--10--10--5--5--7--|--9--9--9--10--10--5--5--7--|
--7--7--7-------------------|--7--7--7-------------------|
----------------------------|----------------------------|


  Q    E  E  E  E  S  S S  S    Q    E  E  E  E  S  S  S  S  
-----------------------------|------------------------------|
-----------------------------|------------------------------|
-----------------------------|------------------------------|
----------5--L--7--5p-4------|----------5--L--7--5p-4h------|
--7----5----------------7p-5-|--7----5-----------------7p-5-|
-----------------------------|------------------------------|


  Q    E  E  E  E  S  S  S  S    E  E  E  E  E  E  E  E     W                 
------------------------------|--------------------------|-------------------|
------------------------------|--------------------------|-------------------|
------------------------------|--9--7--5--4-----------7--|--9----------------|
----------5--L--7--5p-4h------|--------------7--5--4-----|-------------------|
--7----5-----------------7p-5-|--------------------------|-------------------|
------------------------------|--------------------------|-------------------|


  W                    Q    E   E   E  E  E  E     E  E  E   E   E  E  E  E   
--------------------|---------------------------|----------------------------|
--------------------|---------------------------|----------------------------|
--L~----------------|--9----9--12--12--7--7--9--|--9--9--9--12--12--7--7--9--|
--------------------|--9----9--10--10--5--5--7--|--9--9--9--10--10--5--5--7--|
--------------------|--7----7-------------------|--7--7--7-------------------|
--------------------|---------------------------|----------------------------|


  E  E  E  E  E  E  E  E     E  E  E  E  E  E  E  E   
--------------------------|--------------------------|
--------------------------|--------------------------|
--9-----9-----9-----9-----|--9-----9-----9-----9-----|
--x-----x-----x-----x-----|--x-----x-----x-----x-----|
--7-----7-----7-----7-----|--7-----7-----7-----7-----|
--------------------------|--------------------------|


  E  E  E   E   E  E  E  E     E  E  E   E   E  E  E  E   
----------------------------|----------------------------|
----------------------------|----------------------------|
--9--9--9--12--12--7--7--9--|--9--9--9--12--12--7--7--9--|
--9--9--9--10--10--5--5--7--|--9--9--9--10--10--5--5--7--|
--7--7--7-------------------|--7--7--7-------------------|
----------------------------|----------------------------|


  E  E  E  E  E  E  E  E     E  E  E  E  E  E  E   E   
--------------------------|---------------------------|
--------------------------|---------------------------|
--9--9-----9--9--9-----9--|--9--9-----9--9--9--9--12--|
--x--x-----x--x--x-----x--|--x--x-----x--x--x--x---x--|
--7--7-----7--7--7-----7--|--7--7-----7--7--7--7--10--|
--------------------------|---------------------------|


  E  E  E  E  E  E  E  E     E  E  E  E  E   E   E  E     Q    Q    Q    Q     
--------------------------|----------------------------|----------------------|
--------------------------|----------------------------|----------------------|
--9--9-----9--9--9-----9--|--9--9-----9--9--11--12-----|----------------------|
--x--x-----x--x--x-----x--|--x--x-----x--x---x---x-----|--2----2----2----2----|
--7--7-----7--7--7-----7--|--7--7-----7--7---9--10-----|--2----2----2----2----|
--------------------------|----------------------------|--0----0----0----0----|


  Q    Q    Q    Q       Q    Q    Q    Q       Q    Q    Q    Q     
----------------------|----------------------|----------------------|
----------------------|----------------------|----------------------|
----------------------|--7----7----7----7----|--2----2----2----2----|
--5----5----5----5----|--7----7----7----7----|--2----2----2----2----|
--5----5----5----5----|--5----5----5----5----|--0----0----0----0----|
--3----3----3----3----|----------------------|----------------------|


  Q    Q    Q    Q       Q    Q    Q    Q       Q    Q    Q    Q     
----------------------|----------------------|----------------------|
----------------------|----------------------|----------------------|
----------------------|----------------------|--2----2----2----2----|
--2----2----2----2----|--7----7----7----7----|--2----2----2----2----|
--2----2----2----2----|--5----5----5----5----|--0----0----0----0----|
--0----0----0----0----|----------------------|----------------------|


  Q    Q    Q    Q       E  E  E  E  E  E  E  E     E  E  E  E  E  E  E  E   
----------------------|--------------------------|--------------------------|
----------------------|--------------------------|--------------------------|
--5----5----5----5----|--------------------------|--------------------------|
--5----5----5----5----|--2--2--2--2--2--2--2--2--|--5--5--5--5--5--5--5--5--|
--3----3----3----3----|--2--2--2--2--2--2--2--2--|--5--5--5--5--5--5--5--5--|
----------------------|--0--0--0--0--0--0--0--0--|--3--3--3--3--3--3--3--3--|


  E  E  E  E  E  E  E  E     E  E  E  E  E  E  E  E   
--------------------------|--------------------------|
--------------------------|--------------------------|
--7--7--7--7--7--7--7--7--|--2--2--2--2--2--2--2--2--|
--7--7--7--7--7--7--7--7--|--2--2--2--2--2--2--2--2--|
--5--5--5--5--5--5--5--5--|--0--0--0--0--0--0--0--0--|
--------------------------|--------------------------|


  E  E  E  E  E  E  E  E     E  E  E  E  E  E  E  E   
--------------------------|--------------------------|
--------------------------|--------------------------|
--------------------------|--------------------------|
--2--2--2--2--2--2--2--2--|--7--7--7--7--7--7--7--7--|
--2--2--2--2--2--2--2--2--|--5--5--5--5--5--5--5--5--|
--0--0--0--0--0--0--0--0--|--------------------------|


  PM PM PM PM PM PM PM PM    PM PM PM PM PM    PM PM  
  E  E  E  E  E  E  E  E     E  E  E  E  E  E  E  E   
--------------------------|--------------------------|
--------------------------|--------------------------|
--------------------------|--------------------------|
--------------------------|--------------------------|
--7--7--7--7--7--7--7--7--|--7--7--7--7--7-----7--9--|
--5--5--5--5--5--5--5--5--|--5--5--5--5--5-----5--7--|


   PM  PM  PM  PM  PM  PM  PM  PM     PM  PM  PM  PM                  
   E   E   E   E   E   E   E   E      E   E   E   E   E   E   E   E   
----------------------------------|----------------------------------|
----------------------------------|----------------------------------|
----------------------------------|----------------------------------|
----------------------------------|------------------10--10--10--10--|
--10--10--10--10--10--10--10--10--|--10--10--10--10--10--10--10--10--|
---8---8---8---8---8---8---8---8--|---8---8---8---8---8---8---8---8--|


  PM PM PM PM PM PM PM PM    PM PM PM PM              
  E  E  E  E  E  E  E  E     E  E  E  E  E  E  E  E   
--------------------------|--------------------------|
--------------------------|--------------------------|
--------------------------|--------------------------|
--------------------------|--------------9--9--9--9--|
--9--9--9--9--9--9--9--9--|--9--9--9--9--9--9--9--9--|
--7--7--7--7--7--7--7--7--|--7--7--7--7--7--7--7--7--|


  PM PM PM PM PM PM PM PM    PM PM PM PM PM PM PM PM                           
  E  E  E  E  E  E  E  E     E  E  E  E  E  E  E  E     Q    Q    E  E  E  E   
--------------------------|--------------------------|------------------------|
--------------------------|--------------------------|------------------------|
--------------------------|--------------------------|------------------------|
--7--7--7--7--7--7--7--7--|--7--7--7--7--7--7--7--7--|--5----5----5--5--5--7--|
--5--5--5--5--5--5--5--5--|--5--5--5--5--5--5--5--5--|--3----3----3--3--3--5--|
--------------------------|--------------------------|------------------------|


  E  E  Q    E  E  E  E     Q    Q    E  E  E  E     E  E  Q    E  E  E  E   
-------------------------|------------------------|-------------------------|
-------------------------|------------------------|-------------------------|
-------------------------|------------------------|-------------------------|
--L--7--7----7--7--7--7--|--2----2----2--2--2--4--|--L--4--4----4--4--4--4--|
--L--5--5----5--5--5--5--|--2----2----2--2--2--2--|--L--2--2----2--2--2--2--|
-------------------------|--0----0----0--0--0-----|-------------------------|


  Q    Q    E  E  E  E     E  E  E  E  E  E  E  E     W                 
------------------------|--------------------------|-------------------|
------------------------|--------------------------|-------------------|
------------------------|--------------------------|-------------------|
--5----5----5--5--5--5--|--7--7--7--7--7--7--7--7--|--2----------------|
--3----3----3--3--3--3--|--5--5--5--5--5--5--5--5--|--2----------------|
------------------------|--------------------------|--0----------------|


  W                   H.           E  E      W                 
-------------------|----------------------|-------------------|
-------------------|----------------------|-------------------|
-------------------|------------------7s--|--9----------------|
--L----------------|--L------------L------|-------------------|
--L----------------|--L------------L--5s--|--7----------------|
--L----------------|--L------------L------|-------------------|


  W                   W                   W                                     
-------------------|-------------------|-------------------|-------------------|
-------------------|-------------------|-------------------|-------------------|
--L----------------|--L----------------|--L----------------|-------------------|
-------------------|-------------------|-------------------|-------------------|
--L----------------|--L----------------|--L----------------|-------------------|
-------------------|-------------------|-------------------|-------------------|


-------------------|-------------------|-------------------|-------------------|
-------------------|-------------------|-------------------|-------------------|
-------------------|-------------------|-------------------|-------------------|
-------------------|-------------------|-------------------|-------------------|
-------------------|-------------------|-------------------|-------------------|
-------------------|-------------------|-------------------|-------------------|


-------------------|-------------------|-------------------|-------------------|
-------------------|-------------------|-------------------|-------------------|
-------------------|-------------------|-------------------|-------------------|
-------------------|-------------------|-------------------|-------------------|
-------------------|-------------------|-------------------|-------------------|
-------------------|-------------------|-------------------|-------------------|


  PM PM PM PM PM PM PM PM    PM PM PM PM PM PM PM PM  
  E  E  E  E  E  E  E  E     E  E  E  E  E  E  E  E   
--------------------------|--------------------------|
--------------------------|--------------------------|
--------------------------|--------------------------|
--2--2--2--2--2--2--2--2--|--5--5--5--5--5--5--5--5--|
--2--2--2--2--2--2--2--2--|--5--5--5--5--5--5--5--5--|
--0--0--0--0--0--0--0--0--|--3--3--3--3--3--3--3--3--|


  PM PM PM PM PM PM PM PM    PM PM PM PM PM PM PM PM  
  E  E  E  E  E  E  E  E     E  E  E  E  E  E  E  E   
--------------------------|--------------------------|
--------------------------|--------------------------|
--------------------------|--------------------------|
--7--7--7--7--7--7--7--7--|--2--2--2--2--2--2--2--2--|
--5--5--5--5--5--5--5--5--|--0--0--0--0--0--0--0--0--|
--------------------------|--------------------------|


  PM PM PM PM PM PM PM PM    PM PM PM PM PM PM PM PM  
  E  E  E  E  E  E  E  E     E  E  E  E  E  E  E  E   
--------------------------|--------------------------|
--------------------------|--------------------------|
--------------------------|--------------------------|
--9--9--9--9--9--9--9--9--|--7--7--7--7--7--7--7--7--|
--7--7--7--7--7--7--7--7--|--5--5--5--5--5--5--5--5--|
--------------------------|--------------------------|


  PM PM PM PM PM PM                                                             
  E  E  E  E  E  E  E  E     E  E  E  E  Q    Q        E  E  E  E  E  E  E  E   
--------------------------|-------------------------|--------------------------|
--------------------------|-------------------------|--------------------------|
--------------------------|--5--5--5--5--5----L\----|--------------------------|
--2--2--2--2--2--2--2--4--|--5--5--5--5--5----L\----|--2--2--2--2--2--2--2--2--|
--0--0--0--0--0--0--0--2--|--3--3--3--3--3----L\----|--2--2--2--2--2--2--2--2--|
--------------------------|-------------------------|--0--0--0--0--0--0--0--0--|


  E  E  E  E  E  E  E  E     E  E  E  E  E  E  E  E   
--------------------------|--------------------------|
--------------------------|--------------------------|
--------------------------|--7--7--7--7--7--7--7--7--|
--5--5--5--5--5--5--5--5--|--7--7--7--7--7--7--7--7--|
--5--5--5--5--5--5--5--5--|--5--5--5--5--5--5--5--5--|
--3--3--3--3--3--3--3--3--|--------------------------|


  E  E  E  E  E  E  E  E     E  E  E  E  E  E  E  E   
--------------------------|--------------------------|
--------------------------|--------------------------|
--2--2--2--2--2--2--2--2--|--------------------------|
--2--2--2--2--2--2--2--2--|--2--2--2--2--2--2--2--2--|
--0--0--0--0--0--0--0--0--|--2--2--2--2--2--2--2--2--|
--------------------------|--0--0--0--0--0--0--0--0--|


  E  E  E  E  E  E  E  E     E  E  E  E  E  E  E  E   
--------------------------|--------------------------|
--------------------------|--------------------------|
--------------------------|--2--2--2--2--2--2--2--2--|
--7--7--7--7--7--7--7--7--|--2--2--2--2--2--2--2--2--|
--5--5--5--5--5--5--5--5--|--0--0--0--0--0--0--0--0--|
--------------------------|--------------------------|


  E  E  E  E  E  E  E  E     E  E  E  E  E  E  E  E   
--------------------------|--------------------------|
--------------------------|--------------------------|
--5--5--5--5--5--5--5--5--|--------------------------|
--5--5--5--5--5--5--5--5--|--2--2--2--2--2--2--2--2--|
--3--3--3--3--3--3--3--3--|--2--2--2--2--2--2--2--2--|
--------------------------|--0--0--0--0--0--0--0--0--|


  E  E  E  E  E  E  E  E     E  E  E  E  E  E  E  E   
--------------------------|--------------------------|
--------------------------|--------------------------|
--------------------------|--7--7--7--7--7--7--7--7--|
--5--5--5--5--5--5--5--5--|--7--7--7--7--7--7--7--7--|
--5--5--5--5--5--5--5--5--|--5--5--5--5--5--5--5--5--|
--3--3--3--3--3--3--3--3--|--------------------------|


  E  E  E  E  E  E  E  E     Q    Q    Q    Q       Q    Q    Q    Q     
--------------------------|----------------------|----------------------|
--------------------------|----------------------|----------------------|
--2--2--2--2--2--2--2--2--|----------------------|----------------------|
--2--2--2--2--2--2--2--2--|--2----2----2----2----|--7----7----7----7----|
--0--0--0--0--0--0--0--0--|--2----2----2----2----|--5----5----5----5----|
--------------------------|--0----0----0----0----|----------------------|


  Q    Q    Q    Q       E  E  Q    H           H        H          
----------------------|----------------------|--------------------||
----------------------|----------------------|--------------------||
--2----2----2----2----|--5-------------------|--------------------||
--2----2----2----2----|--5-------------------|--2-----------------||
--0----0----0----0----|--3-------------------|--2-----------------||
----------------------|----------------------|--0-----------------||










Tim McIlrath - Guitar Two



D#||-------|-------|-------|-------|-------|-------|
A#||-------|-------|-------|-------|-------|-------|
F#||-------|-------|-------|-------|-------|-------|
C#||-------|-------|-------|-------|-------|-------|
G#||-------|-------|-------|-------|-------|-------|
D#||-------|-------|-------|-------|-------|-------|


             play N.H. near these frets                            
   E   E     E                          E     E     E     E    E   
------------------------------------------------------------------|
------------------------------------------------------------------|
------------------------------------------------------------------|
------------------------------------------------------------------|
--14--14----------------------------------------------------------|
--12--12--<>14-----------------------<>13--<>12--<>11--<>10--<>9--|


    to get the recorded pitches                                             
    E                           E    E    E    E    E    E  E               
---------------------------------------------------------------|-----|-----|
---------------------------------------------------------------|-----|-----|
---------------------------------------------------------------|-----|-----|
---------------------------------------------------------------|-----|-----|
---------------------------------------------------------------|-----|-----|
--<>7-------------------------<>6--<>5--<>4--<>3--<>2--<>1-----|-----|-----|


-----|-----|-----|-----|-----|-----|-----|-----|-----|-----|-----|-----|-----|
-----|-----|-----|-----|-----|-----|-----|-----|-----|-----|-----|-----|-----|
-----|-----|-----|-----|-----|-----|-----|-----|-----|-----|-----|-----|-----|
-----|-----|-----|-----|-----|-----|-----|-----|-----|-----|-----|-----|-----|
-----|-----|-----|-----|-----|-----|-----|-----|-----|-----|-----|-----|-----|
-----|-----|-----|-----|-----|-----|-----|-----|-----|-----|-----|-----|-----|


-----|-----|-----|-----|-----|-----|-----|-----|-----|-----|-----|-----|-----|
-----|-----|-----|-----|-----|-----|-----|-----|-----|-----|-----|-----|-----|
-----|-----|-----|-----|-----|-----|-----|-----|-----|-----|-----|-----|-----|
-----|-----|-----|-----|-----|-----|-----|-----|-----|-----|-----|-----|-----|
-----|-----|-----|-----|-----|-----|-----|-----|-----|-----|-----|-----|-----|
-----|-----|-----|-----|-----|-----|-----|-----|-----|-----|-----|-----|-----|


  Q    Q    Q    Q       Q    Q     Q    Q       Q    Q    Q    Q     
--7--------------7----|------------10---------|--7--------------7----|
-------8--------------|--8---------------8----|-------8--------------|
------------9---------|-------9---------------|------------9---------|
----------------------|-----------------------|----------------------|
----------------------|-----------------------|----------------------|
----------------------|-----------------------|----------------------|


  Q    Q     Q    Q                                       Q    Q    Q    Q     
------------10---------|-------|-------|-------|-------|--7--------------7----|
--8---------------8----|-------|-------|-------|-------|-------8--------------|
-------9---------------|-------|-------|-------|-------|------------9---------|
-----------------------|-------|-------|-------|-------|----------------------|
-----------------------|-------|-------|-------|-------|----------------------|
-----------------------|-------|-------|-------|-------|----------------------|


  Q    Q     Q    Q       Q    Q    Q    Q       Q    Q     Q    Q             
------------10---------|--7--------------7----|------------10---------|-------|
--8---------------8----|-------8--------------|--8---------------8----|-------|
-------9---------------|------------9---------|-------9---------------|-------|
-----------------------|----------------------|-----------------------|-------|
-----------------------|----------------------|-----------------------|-------|
-----------------------|----------------------|-----------------------|-------|


-------|-------|-------|-------|-------|-------|-------|-----|-----|-----|-----|
-------|-------|-------|-------|-------|-------|-------|-----|-----|-----|-----|
-------|-------|-------|-------|-------|-------|-------|-----|-----|-----|-----|
-------|-------|-------|-------|-------|-------|-------|-----|-----|-----|-----|
-------|-------|-------|-------|-------|-------|-------|-----|-----|-----|-----|
-------|-------|-------|-------|-------|-------|-------|-----|-----|-----|-----|


              PM PM PM PM PM   PM PM PM    PM PM PM PM PM PM PM PM  
              E  E  E  E  S  S E  E  E     E  E  E  E  E  E  E  E   
-----|-----|----------------------------|--------------------------|
-----|-----|----------------------------|--------------------------|
-----|-----|----------------------------|--------------------------|
-----|-----|----------------------------|--------------5--7--------|
-----|-----|--------5-----2h-3-2--------|--------5--7--------3--5--|
-----|-----|--5--7-----5----------5--3--|--5--7--------------------|


  PM PM PM PM PM   PM PM PM    PM PM PM PM                                      
  E  E  E  E  S  S E  E  E     E  E  E  E  E  E  E  E                           
----------------------------|--------------------------|-----|-----|-----|-----|
----------------------------|--------------------------|-----|-----|-----|-----|
----------------------------|--------------------------|-----|-----|-----|-----|
----------------------------|--------------------------|-----|-----|-----|-----|
--------5--3--2h-3-2--------|--------5--7--------------|-----|-----|-----|-----|
--5--7----------------5--3--|--5--7--------5--7--8-----|-----|-----|-----|-----|


  Q    Q    Q    Q       Q    Q     Q    Q       Q    Q    Q    Q     
--7--------------7----|------------10---------|--7--------------7----|
-------8--------------|--8---------------8----|-------8--------------|
------------9---------|-------9---------------|------------9---------|
----------------------|-----------------------|----------------------|
----------------------|-----------------------|----------------------|
----------------------|-----------------------|----------------------|


  Q    Q     Q    Q                                       Q    Q    Q    Q     
------------10---------|-------|-------|-------|-------|--7--------------7----|
--8---------------8----|-------|-------|-------|-------|-------8--------------|
-------9---------------|-------|-------|-------|-------|------------9---------|
-----------------------|-------|-------|-------|-------|----------------------|
-----------------------|-------|-------|-------|-------|----------------------|
-----------------------|-------|-------|-------|-------|----------------------|


  Q    Q     Q    Q       Q    Q    Q    Q       Q    Q     Q    Q     
------------10---------|--7--------------7----|------------10---------|
--8---------------8----|-------8--------------|--8---------------8----|
-------9---------------|------------9---------|-------9---------------|
-----------------------|----------------------|-----------------------|
-----------------------|----------------------|-----------------------|
-----------------------|----------------------|-----------------------|


  Q    Q    Q    Q       Q    Q     Q    Q       Q    Q    Q    Q     
--7--------------7----|------------10---------|--7--------------7----|
-------8--------------|--8---------------8----|-------8--------------|
------------9---------|-------9---------------|------------9---------|
----------------------|-----------------------|----------------------|
----------------------|-----------------------|----------------------|
----------------------|-----------------------|----------------------|


  Q    Q     Q    Q       Q    Q    Q    Q       Q    Q     Q    Q     
------------10---------|--7--------------7----|------------10---------|
--8---------------8----|-------8--------------|--8---------------8----|
-------9---------------|------------9---------|-------9---------------|
-----------------------|----------------------|-----------------------|
-----------------------|----------------------|-----------------------|
-----------------------|----------------------|-----------------------|


  Q    Q    E  E  E  E     E  E  Q    E  E  E  E     Q    Q    E  E  E  E   
------------------------|-------------------------|------------------------|
------------------------|-------------------------|------------------------|
------------------------|-------------------------|------------------------|
--5----5----5--5--5--7--|--L--7--7----7--7--7--7--|--2----2----2--2--2--4--|
--3----3----3--3--3--5--|--L--5--5----5--5--5--5--|--2----2----2--2--2--2--|
------------------------|-------------------------|--0----0----0--0--0-----|


  E  E  Q    E  E  E  E     Q    Q    E  E  E  E     E  E  E  E  E  E  E  E   
-------------------------|------------------------|--------------------------|
-------------------------|------------------------|--------------------------|
-------------------------|------------------------|--------------------------|
--L--4--4----4--4--4--4--|--5----5----5--5--5--5--|--7--7--7--7--7--7--7--7--|
--L--2--2----2--2--2--2--|--3----3----3--3--3--3--|--5--5--5--5--5--5--5--5--|
-------------------------|------------------------|--------------------------|


  W                   W                   W                   W                 
-------------------|-------------------|-------------------|-------------------|
-------------------|-------------------|-------------------|-------------------|
-------------------|-------------------|-------------------|-------------------|
--2----------------|--L----------------|--L----------------|--L----------------|
--2----------------|--L----------------|--L----------------|--L----------------|
--0----------------|--L----------------|--L----------------|--L----------------|


  W                   W                   W                                     
-------------------|-------------------|-------------------|-------------------|
-------------------|-------------------|-------------------|-------------------|
-------------------|-------------------|-------------------|-------------------|
--L----------------|--L----------------|--L----------------|-------------------|
--L----------------|--L----------------|--L----------------|-------------------|
--L----------------|--L----------------|--L----------------|-------------------|


-------------------|-------------------|-------------------|-------------------|
-------------------|-------------------|-------------------|-------------------|
-------------------|-------------------|-------------------|-------------------|
-------------------|-------------------|-------------------|-------------------|
-------------------|-------------------|-------------------|-------------------|
-------------------|-------------------|-------------------|-------------------|


-------------------|-------------------|-------------------|-------------------|
-------------------|-------------------|-------------------|-------------------|
-------------------|-------------------|-------------------|-------------------|
-------------------|-------------------|-------------------|-------------------|
-------------------|-------------------|-------------------|-------------------|
-------------------|-------------------|-------------------|-------------------|


-------------------|-------------------|-------------------|-------------------|
-------------------|-------------------|-------------------|-------------------|
-------------------|-------------------|-------------------|-------------------|
-------------------|-------------------|-------------------|-------------------|
-------------------|-------------------|-------------------|-------------------|
-------------------|-------------------|-------------------|-------------------|


-------------------|-------------------|-------------------|-------------------|
-------------------|-------------------|-------------------|-------------------|
-------------------|-------------------|-------------------|-------------------|
-------------------|-------------------|-------------------|-------------------|
-------------------|-------------------|-------------------|-------------------|
-------------------|-------------------|-------------------|-------------------|


                          Q    Q    Q    Q       Q    Q     Q    Q     
-----|-----|-----|-----|--7--------------7----|------------10---------|
-----|-----|-----|-----|-------8--------------|--8---------------8----|
-----|-----|-----|-----|------------9---------|-------9---------------|
-----|-----|-----|-----|----------------------|-----------------------|
-----|-----|-----|-----|----------------------|-----------------------|
-----|-----|-----|-----|----------------------|-----------------------|


  Q    Q    Q    Q       Q    Q     Q    Q                                     
--7--------------7----|------------10---------|-------|-------|-------|-------|
-------8--------------|--8---------------8----|-------|-------|-------|-------|
------------9---------|-------9---------------|-------|-------|-------|-------|
----------------------|-----------------------|-------|-------|-------|-------|
----------------------|-----------------------|-------|-------|-------|-------|
----------------------|-----------------------|-------|-------|-------|-------|


  Q    Q    Q    Q       Q    Q     Q    Q       Q    Q    Q    Q     
--7--------------7----|------------10---------|--7--------------7----|
-------8--------------|--8---------------8----|-------8--------------|
------------9---------|-------9---------------|------------9---------|
----------------------|-----------------------|----------------------|
----------------------|-----------------------|----------------------|
----------------------|-----------------------|----------------------|


  W                              
-------------------|-----------||
-------------------|-----------||
-------------------|-----------||
-------------------|-----------||
-------------------|-----------||
-------------------|-----------||










Zach Blair - Guitar One



         PM PM PM PM PM PM PM    PM PM PM PM PM PM PM PM  
      E  E  E  E  E  E  E  E     E  E  E  E  E  E  E  E   
D#||--------------------------|--------------------------|
A#||--------------------------|--------------------------|
F#||--------------------------|--------------------------|
C#||--2-----------------------|--------------------------|
G#||--2--2--2--2--2--2--2--2--|--2--2--2--2--2--2--2--2--|
D#||--0--0--0--0--0--0--0--0--|--0--0--0--0--0--0--0--0--|


  PM PM PM PM PM PM PM PM    PM PM PM PM PM PM PM PM  
  E  E  E  E  E  E  E  E     E  E  E  E  E  E  E  E   
--------------------------|--------------------------|
--------------------------|--------------------------|
--------------------------|--------------------------|
--------------------------|--------------------------|
--2--2--2--2--2--2--2--2--|--2--2--2--2--2--2--2--2--|
--0--0--0--0--0--0--0--0--|--0--0--0--0--0--0--0--0--|


     PM PM PM PM PM PM PM    PM PM PM PM PM PM PM PM  
  E  E  E  E  E  E  E  E     E  E  E  E  E  E  E  E   
--------------------------|--------------------------|
--------------------------|--------------------------|
--------------------------|--------------------------|
--2-----------------------|--------------------------|
--2--2--2--2--2--2--2--2--|--2--2--2--2--2--2--2--2--|
--0--0--0--0--0--0--0--0--|--0--0--0--0--0--0--0--0--|


  PM PM PM PM PM PM PM PM                                                       
  E  E  E  E  E  E  E  E     E  E  E  E  E  E  E  E     Q    E  E  E  E  E  E   
--------------------------|--------------------------|-------------------------|
--------------------------|--------------------------|-------------------------|
--------------------------|--------------------------|-------------------------|
--------------------------|-----------2--2--2--2-----|--2----2--5--5--5--5--7--|
--2--2--2--2--2--2--2--2--|--2--2--2--2--2--2--2-----|--2----2--3--3--5--5--7--|
--0--0--0--0--0--0--0--0--|--0--0--0--0--0--0--0-----|--0----0--------3--3--5--|


  E  E  E  E  E  E  E  E     Q    E  E  E  E  E  E     E  E  E  E  E  E  E  E   
--------------------------|-------------------------|--------------------------|
--------------------------|-------------------------|--------------------------|
--------------------------|-------------------------|--------------------------|
--2--2--2--5--5--5--5--7--|--2----2--5--5--5--5--7--|--2--2--2--5--5--5--5-----|
--2--2--2--3--3--5--5--7--|--2----2--3--3--5--5--7--|--2--2--2--3--3--5--5-----|
--0--0--0--------3--3--5--|--0----0--------3--3--5--|--0--0--0--------3--3-----|


  Q    E  E  E  E  E  E     E  E  E  E  E  E  E  E     Q    E  E  E  E  E  E   
-------------------------|--------------------------|-------------------------|
-------------------------|--------------------------|-------------------------|
-------------------------|--------------------------|-------------------------|
--2----2--5--5--5--5--7--|--2--2--2--5--5--5--5--7--|--2----2--5--5--5--5--7--|
--2----2--3--3--5--5--7--|--2--2--2--3--3--5--5--7--|--2----2--3--3--5--5--7--|
--0----0--------3--3--5--|--0--0--0--------3--3--5--|--0----0--------3--3--5--|


  E  E  E  E  E  E  E  E     E  E  Q    H                     
--------------------------|----------------------|-----------|
--------------------------|----------------------|-----------|
--------------------------|----------------------|-----------|
--2--2--2--5--5--5--5--2--|--2-------------------|-----------|
--2--2--2--3--3--5--5--2--|--2-------------------|-----------|
--0--0--0--------3--3--0--|--0-------------------|-----------|


  Q    E  E  E  E  E  E     E  E  E  E  E  E  E  E               
-------------------------|--------------------------|-----|-----|
-------------------------|--------------------------|-----|-----|
-------------------------|--------------------------|-----|-----|
--2----2--5--5--5--5--7--|--2--2--2--5--5--5--5--7--|-----|-----|
--2----2--3--3--5--5--7--|--2--2--2--3--3--5--5--7--|-----|-----|
--0----0--------3--3--5--|--0--0--0--------3--3--5--|-----|-----|


  Q    E  E  E  E  E  E     E  E  E  E  E  E  E  E     E  E  E  E  E  E  E  E   
-------------------------|--------------------------|--------------------------|
-------------------------|--------------------------|--------------------------|
-------------------------|--------------------------|--------------------------|
--2----2--5--5--5--5--7--|--2--2--2--5--5--5--5--7--|--7--7-----7--7--7-----7--|
--2----2--3--3--5--5--7--|--2--2--2--3--3--5--5--7--|--7--7-----7--7--7-----7--|
--0----0--------3--3--5--|--0--0--0--------3--3--5--|--5--5-----5--5--5-----5--|


  E  E  E  E  E  E  E  E     E  E  E  E  E  E  E  E   
--------------------------|--------------------------|
--------------------------|--------------------------|
--------------------------|--------------------------|
--7--7-----7--7--7--7--5--|--7--7-----7--7--7-----7--|
--7--7-----7--7--7--7--5--|--7--7-----7--7--7-----7--|
--5--5-----5--5--5--5--3--|--5--5-----5--5--5-----5--|


  E  E  E  E  E  E  E  E     E  E  E  E  E  E  E  E   
--------------------------|--------------------------|
--------------------------|--------------------------|
--------------------------|--5--5-----5--5--5-----5--|
--7--7-----7--7--7--7--5--|--5--5-----5--5--5-----5--|
--7--7-----7--7--7--7--5--|--3--3-----3--3--3-----3--|
--5--5-----5--5--5--5--3--|--------------------------|


  E  E  E  E  E  E  E  E     E  E  E  E  E  E  E  E     E  E  Q    H         
--------------------------|--------------------------|----------------------|
--------------------------|--------------------------|----------------------|
--5--5-----5--5--5--5--5--|--7--7--7--7--7--7--7--7--|--7-------------------|
--5--5-----5--5--5--5--5--|--7--7--7--7--7--7--7--7--|--7-------------------|
--3--3-----3--3--3--3--3--|--5--5--5--5--5--5--5--5--|--5-------------------|
--------------------------|--------------------------|----------------------|


  Q    Q    Q    Q       Q    Q    Q    Q       Q    Q    Q    Q     
----------------------|----------------------|----------------------|
----------------------|----------------------|----------------------|
----------------------|----------------------|--7----7----7----7----|
--2----2----2----2----|--5----5----5----5----|--7----7----7----7----|
--2----2----2----2----|--5----5----5----5----|--5----5----5----5----|
--0----0----0----0----|--3----3----3----3----|----------------------|


  Q    Q    Q    Q       Q    Q    Q    Q       Q    Q    Q    Q     
----------------------|----------------------|----------------------|
----------------------|----------------------|----------------------|
--2----2----2----2----|----------------------|----------------------|
--2----2----2----2----|--2----2----2----2----|--7----7----7----7----|
--0----0----0----0----|--2----2----2----2----|--5----5----5----5----|
----------------------|--0----0----0----0----|----------------------|


  Q    Q    Q    Q       Q    Q    Q    Q       E  E  E  E  E  E  E  E   
----------------------|----------------------|--------------------------|
----------------------|----------------------|--------------------------|
--2----2----2----2----|--5----5----5----5----|--------------------------|
--2----2----2----2----|--5----5----5----5----|--2--2--2--2--2--2--2--2--|
--0----0----0----0----|--3----3----3----3----|--2--2--2--2--2--2--2--2--|
----------------------|----------------------|--0--0--0--0--0--0--0--0--|


  E  E  E  E  E  E  E  E     E  E  E  E  E  E  E  E   
--------------------------|--------------------------|
--------------------------|--------------------------|
--------------------------|--7--7--7--7--7--7--7--7--|
--5--5--5--5--5--5--5--5--|--7--7--7--7--7--7--7--7--|
--5--5--5--5--5--5--5--5--|--5--5--5--5--5--5--5--5--|
--3--3--3--3--3--3--3--3--|--------------------------|


  E  E  E  E  E  E  E  E     E  E  E  E  E  E  E  E   
--------------------------|--------------------------|
--------------------------|--------------------------|
--2--2--2--2--2--2--2--2--|--------------------------|
--2--2--2--2--2--2--2--2--|--2--2--2--2--2--2--2--2--|
--0--0--0--0--0--0--0--0--|--2--2--2--2--2--2--2--2--|
--------------------------|--0--0--0--0--0--0--0--0--|


  E  E  E  E  E  E  E  E     E  E  E  E  E  E  E  E   
--------------------------|--------------------------|
--------------------------|--------------------------|
--------------------------|--2--2--2--2--2--2--2--2--|
--7--7--7--7--7--7--7--7--|--2--2--2--2--2--2--2--2--|
--5--5--5--5--5--5--5--5--|--0--0--0--0--0--0--0--0--|
--------------------------|--------------------------|


  E  E  E  E  E  E  E  E     Q    Q     H           H        Q     Q      
--------------------------|----------------------|-----------------------|
--------------------------|----------------------|-----------------------|
--5--5--5--5--5--5--5--5--|----------------------|-----------------------|
--5--5--5--5--5--5--5--5--|--2----x\-------------|-----------------------|
--3--3--3--3--3--3--3--3--|--2----x\-------------|-----------------------|
--------------------------|--0----x\-------------|----------------14\----|


  Q    E  E  E  E  E  E     E  E  E  E  E  E  E  E     Q    E  E  E  E  E  E   
-------------------------|--------------------------|-------------------------|
-------------------------|--------------------------|-------------------------|
-------------------------|--------------------------|-------------------------|
--2----2--5--5--5--5--7--|--2--2--2--5--5--5--5--7--|--2----2--5--5--5--5--7--|
--2----2--3--3--5--5--7--|--2--2--2--3--3--5--5--7--|--2----2--3--3--5--5--7--|
--0----0--------3--3--5--|--0--0--0--------3--3--5--|--0----0--------3--3--5--|


  E  E  E  E  E  E  E  E     W                   W                 
--------------------------|-------------------|-------------------|
--------------------------|-------------------|-------------------|
--------------------------|-------------------|-------------------|
--------------------------|--2----------------|--L----------------|
-----------------------5--|--2----------------|--L----------------|
--8--7--5--3--2--0--2-----|--0----------------|--L----------------|


                                                       PM PM PM PM PM PM PM PM  
  Q    E  E  E  E  E  E     E  E  E  E  E  E  E  E     E  E  E  E  E  E  E  E   
-------------------------|--------------------------|--------------------------|
-------------------------|--------------------------|--------------------------|
-------------------------|--------------------------|--------------------------|
--2----2--5--5--5--5--7--|--2--2--2--5--5--5--5--7--|--------------------------|
--2----2--3--3--5--5--7--|--2--2--2--3--3--5--5--7--|-----------3--3-----------|
--0----0--------3--3--5--|--0--0--0--------3--3--5--|--0--0--0--------3--3--5--|


  PM PM PM PM PM PM PM PM                                                       
  E  E  E  E  E  E  E  E     Q    E  E  E  E  E  E     E  E  E  E  E  E  E  E   
--------------------------|-------------------------|--------------------------|
--------------------------|-------------------------|--------------------------|
--------------------------|-------------------------|--------------------------|
--------------------------|--2----2--5--5--5--5--7--|--2--2--2--5--5--5--5--7--|
-----------3--3-----------|--2----2--3--3--5--5--7--|--2--2--2--3--3--5--5--7--|
--0--0--0--------3--3--5--|--0----0--------3--3--5--|--0--0--0--------3--3--5--|


  E  E  E  E  E  E  E  E     E  E  E  E  E  E  E  E   
--------------------------|--------------------------|
--------------------------|--------------------------|
--------------------------|--------------------------|
--7--7-----7--7--7-----7--|--7--7-----7--7--7--7--5--|
--7--7-----7--7--7-----7--|--7--7-----7--7--7--7--5--|
--5--5-----5--5--5-----5--|--5--5-----5--5--5--5--3--|


  E  E  E  E  E  E  E  E     E  E  E  E  E  E   E  E     Q    Q    Q    Q     
--------------------------|---------------------------|----------------------|
--------------------------|---------------------------|----------------------|
--------------------------|---------------------------|----------------------|
--7--7-----7--7--7-----7--|--7--7-----7--7--9--10-----|--2----2----2----2----|
--7--7-----7--7--7-----7--|--7--7-----7--7--9--10-----|--2----2----2----2----|
--5--5-----5--5--5-----5--|--5--5-----5--5--7---8-----|--0----0----0----0----|


  Q    Q    Q    Q       Q    Q    Q    Q       Q    Q    Q    Q     
----------------------|----------------------|----------------------|
----------------------|----------------------|----------------------|
----------------------|--7----7----7----7----|--2----2----2----2----|
--5----5----5----5----|--7----7----7----7----|--2----2----2----2----|
--5----5----5----5----|--5----5----5----5----|--0----0----0----0----|
--3----3----3----3----|----------------------|----------------------|


  Q    Q    Q    Q       Q    Q    Q    Q       Q    Q    Q    Q     
----------------------|----------------------|----------------------|
----------------------|----------------------|----------------------|
----------------------|----------------------|--2----2----2----2----|
--2----2----2----2----|--7----7----7----7----|--2----2----2----2----|
--2----2----2----2----|--5----5----5----5----|--0----0----0----0----|
--0----0----0----0----|----------------------|----------------------|


  Q    Q    Q    Q       E  E  E  E  E  E  E  E     E  E  E  E  E  E  E  E   
----------------------|--------------------------|--------------------------|
----------------------|--------------------------|--------------------------|
--5----5----5----5----|--------------------------|--------------------------|
--5----5----5----5----|--2--2--2--2--2--2--2--2--|--5--5--5--5--5--5--5--5--|
--3----3----3----3----|--2--2--2--2--2--2--2--2--|--5--5--5--5--5--5--5--5--|
----------------------|--0--0--0--0--0--0--0--0--|--3--3--3--3--3--3--3--3--|


  E  E  E  E  E  E  E  E     E  E  E  E  E  E  E  E   
--------------------------|--------------------------|
--------------------------|--------------------------|
--7--7--7--7--7--7--7--7--|--2--2--2--2--2--2--2--2--|
--7--7--7--7--7--7--7--7--|--2--2--2--2--2--2--2--2--|
--5--5--5--5--5--5--5--5--|--0--0--0--0--0--0--0--0--|
--------------------------|--------------------------|


  E  E  E  E  E  E  E  E     E  E  E  E  E  E  E  E   
--------------------------|--------------------------|
--------------------------|--------------------------|
--------------------------|--------------------------|
--2--2--2--2--2--2--2--2--|--7--7--7--7--7--7--7--7--|
--2--2--2--2--2--2--2--2--|--5--5--5--5--5--5--5--5--|
--0--0--0--0--0--0--0--0--|--------------------------|


  PM PM PM PM PM PM PM PM    PM PM PM PM PM    PM PM  
  E  E  E  E  E  E  E  E     E  E  E  E  E  E  E  E   
--------------------------|--------------------------|
--------------------------|--------------------------|
--------------------------|--------------------------|
--------------------------|--------------------------|
--7--7--7--7--7--7--7--7--|--7--7--7--7--7-----7--9--|
--5--5--5--5--5--5--5--5--|--5--5--5--5--5-----5--7--|


   PM  PM  PM  PM  PM  PM  PM  PM     PM  PM  PM  PM                  
   E   E   E   E   E   E   E   E      E   E   E   E   E   E   E   E   
----------------------------------|----------------------------------|
----------------------------------|----------------------------------|
----------------------------------|----------------------------------|
----------------------------------|------------------10--10--10--10--|
--10--10--10--10--10--10--10--10--|--10--10--10--10--10--10--10--10--|
---8---8---8---8---8---8---8---8--|---8---8---8---8---8---8---8---8--|


  PM PM PM PM PM PM PM PM    PM PM PM PM              
  E  E  E  E  E  E  E  E     E  E  E  E  E  E  E  E   
--------------------------|--------------------------|
--------------------------|--------------------------|
--------------------------|--------------------------|
--------------------------|--------------9--9--9--9--|
--9--9--9--9--9--9--9--9--|--9--9--9--9--9--9--9--9--|
--7--7--7--7--7--7--7--7--|--7--7--7--7--7--7--7--7--|


  PM PM PM PM PM PM PM PM  
  E  E  E  E  E  E  E  E   
--------------------------|
--------------------------|
--------------------------|
--7--7--7--7--7--7--7--7--|
--5--5--5--5--5--5--5--5--|
--------------------------|


  PM PM PM PM                                                  
  E  E  E  E   T  T  T  T  T  T  T  T  T  T  T  T  T  T  T  T  
--------------------------------------------------------------|
--------------------------------------------------------------|
---------------x--x--x--x--x--x--x--x--x--x--x--x--x--x--x--x-|
--7--7--7--7---x--x--x--x--x--x--x--x--x--x--x--x--x--x--x--x-|
--5--5--5--5---x--x--x--x--x--x--x--x--x--x--x--x--x--x--x--x-|
--------------------------------------------------------------|


  Q    Q    E  E  E  E     E  E  Q    E  E  E  E     Q    Q    E   E  E  E   
------------------------|-------------------------|-------------------------|
------------------------|-------------------------|-------------------------|
--5----5----5--5--5--7--|--L--7--7----7--7--7--7--|--9----9----9--11--9--8--|
--x----x----x--x--x--x--|-----x--x----x--x--x--x--|--x----x----x---x--x--x--|
--3----3----3--3--3--5--|--L--5--5----5--5--5--5--|--7----7----7---9--7--6--|
------------------------|-------------------------|-------------------------|


  E  E  Q    E  E  E  E     Q    Q    E  E  E  E     E  E  E  E  E  E  E  E   
-------------------------|------------------------|--------------------------|
-------------------------|------------------------|--------------------------|
--L--8--8----4--4--4--4--|--5----5----5--5--5--5--|--7--7--7--7--7--7--7--7--|
--L--x--x----x--x--x--x--|--x----x----x--x--x--x--|--x--x--x--x--x--x--x--x--|
--L--6--6----2--2--2--2--|--3----3----3--3--3--3--|--5--5--5--5--5--5--5--5--|
-------------------------|------------------------|--------------------------|


  W                   H.           E   E     H        E    E    E    E   
-------------------|----------------------|-----------------------------|
-------------------|----------------------|-----------------------------|
--9----------------|--L------------9s--7--|--L--------LS--14S--12S--14--|
--x----------------|--L------------x------|-----------------------------|
--7----------------|--L------------7s--5--|--L--------LS--12S--10S--12--|
-------------------|----------------------|-----------------------------|


   H.           E   E     W                   W                 
-----------------------|-------------------|-------------------|
-----------------------|-------------------|-------------------|
---L------------7s--9--|--L----------------|--L----------------|
-----------------------|-------------------|-------------------|
---L------------5s--7--|--L----------------|--L----------------|
-----------------------|-------------------|-------------------|


  W                   E  E  E  E  E  E  E  E      W                 
-------------------|---------------------------|-------------------|
-------------------|---------------------------|-------------------|
--L----------------|--9--9--9--9--9--9--9--7s--|--9----------------|
-------------------|---------------------------|-------------------|
--L----------------|--7--7--7--7--7--7--7--5s--|--7----------------|
-------------------|---------------------------|-------------------|


  W                   W                   W                                   
-------------------|-------------------|-------------------|-----|-----|-----|
-------------------|-------------------|-------------------|-----|-----|-----|
--L----------------|--L----------------|--L----------------|-----|-----|-----|
-------------------|-------------------|--L----------------|-----|-----|-----|
--L----------------|--L----------------|--L----------------|-----|-----|-----|
-------------------|-------------------|-------------------|-----|-----|-----|


  H.           E  E      Q.     E  E  E  E   E     E  E  E  E  E  E  E   E   
----------------------|---------7-----------10--|--------------7--------10--|
----------------------|---------------8---------|-----8-----8-----8---------|
------------------7s--|--9----------------------|--------9-----------9------|
------------------x---|-------------------------|---------------------------|
------------------5s--|--7---------7-----7------|--7------------------------|
----------------------|-------------------------|---------------------------|


  E  E  E  E  E  E  E   E     E  E   E  E  E  E   E  E   
--------------7--------10--|--------10--7--------10-----|
-----8-----8-----8---------|-----8---------8------------|
--------9-----------9------|------------------9------9--|
---------------------------|----------------------------|
--7------------------------|--7-------------------------|
---------------------------|----------------------------|


  E   E  E   E  E   E  E   E     Q    E   E  E   E  E   E   
------------------------------|----------------------------|
--7h--8--7h--8--7h--8--7h--8--|-------7h--8--7h--8--7h--8--|
------------------------------|--9-------------------------|
------------------------------|----------------------------|
------------------------------|----------------------------|
------------------------------|----------------------------|


  E   E  E   E  E   E  E   E     E   E  E   E  E   E  E   E   
------------------------------|------------------------------|
--7h--8--7h--8--7h--8--7h--8--|--7h--8--7h--8--7h--8--7s--3--|
------------------------------|------------------------------|
------------------------------|------------------------------|
------------------------------|------------------------------|
------------------------------|------------------------------|


  E  E  E  E  E  E  E  E     E  E  E  E  E  E  E  E   
--------------------------|--------------------------|
--------------------------|--------------------------|
--------------------------|--------------------------|
--2--2--2--2--2--2--2--2--|--5--5--5--5--5--5--5--5--|
--2--2--2--2--2--2--2--2--|--5--5--5--5--5--5--5--5--|
--0--0--0--0--0--0--0--0--|--3--3--3--3--3--3--3--3--|


  E  E  E  E  E  E  E  E     E  E  E  E  E  E  E  E   
--------------------------|--------------------------|
--------------------------|--------------------------|
--7--7--7--7--7--7--7--7--|--2--2--2--2--2--2--2--2--|
--7--7--7--7--7--7--7--7--|--2--2--2--2--2--2--2--2--|
--5--5--5--5--5--5--5--5--|--0--0--0--0--0--0--0--0--|
--------------------------|--------------------------|


  E  E  E  E  E  E  E  E     E  E  E  E  E  E  E  E   
--------------------------|--------------------------|
--------------------------|--------------------------|
--------------------------|--------------------------|
--2--2--2--2--2--2--2--2--|--7--7--7--7--7--7--7--7--|
--2--2--2--2--2--2--2--2--|--5--5--5--5--5--5--5--5--|
--0--0--0--0--0--0--0--0--|--------------------------|


  E  E  E  E  E  E  E  E     E  E  E  E  E  E  E  E   
--------------------------|--------------------------|
--------------------------|--------------------------|
--2--2--2--2--2--2--2--2--|--5--5--5--5--5--5--5--5--|
--2--2--2--2--2--2--2--2--|--5--5--5--5--5--5--5--5--|
--0--0--0--0--0--0--0--0--|--3--3--3--3--3--3--3--3--|
--------------------------|--------------------------|


  E  E  E  E  E  E  E  E     E  E  E  E  E  E  E  E   
--------------------------|--------------------------|
--------------------------|--------------------------|
--------------------------|--------------------------|
--2--2--2--2--2--2--2--2--|--5--5--5--5--5--5--5--5--|
--2--2--2--2--2--2--2--2--|--5--5--5--5--5--5--5--5--|
--0--0--0--0--0--0--0--0--|--3--3--3--3--3--3--3--3--|


  E  E  E  E  E  E  E  E     E  E  E  E  E  E  E  E     Q    Q    Q    Q     
--------------------------|--------------------------|----------------------|
--------------------------|--------------------------|----------------------|
--7--7--7--7--7--7--7--7--|--2--2--2--2--2--2--2--2--|----------------------|
--7--7--7--7--7--7--7--7--|--2--2--2--2--2--2--2--2--|--2----2----2----2----|
--5--5--5--5--5--5--5--5--|--0--0--0--0--0--0--0--0--|--2----2----2----2----|
--------------------------|--------------------------|--0----0----0----0----|


  Q    Q    Q    Q       Q    Q    Q    Q       E  E  Q    H         
----------------------|----------------------|----------------------|
----------------------|----------------------|----------------------|
----------------------|--2----2----2----2----|--5-------------------|
--7----7----7----7----|--2----2----2----2----|--5-------------------|
--5----5----5----5----|--0----0----0----0----|--3-------------------|
----------------------|----------------------|----------------------|


  H        H          
--------------------||
--------------------||
--------------------||
--2-----------------||
--2-----------------||
--0-----------------||










Zach Blair - Guitar Two



D#||-------|-------|-------|-------|-------|-------|-------|-------|-------|
A#||-------|-------|-------|-------|-------|-------|-------|-------|-------|
F#||-------|-------|-------|-------|-------|-------|-------|-------|-------|
C#||-------|-------|-------|-------|-------|-------|-------|-------|-------|
G#||-------|-------|-------|-------|-------|-------|-------|-------|-------|
D#||-------|-------|-------|-------|-------|-------|-------|-------|-------|


                          E  E  E  E  E  E  E  E     E  E  E  E  E  E  E  E   
-------|-------|-------|--------------------------|--------------------------|
-------|-------|-------|--------------------------|--------------------------|
-------|-------|-------|--9--9--9--9--9--7--7--9--|--9--9--9--9--9--7--7--9--|
-------|-------|-------|--x--x--x--x--x--x--x--x--|--x--x--x--x--x--x--x--x--|
-------|-------|-------|--7--7--7--7--7--5--5--7--|--7--7--7--7--7--5--5--7--|
-------|-------|-------|--------------------------|--------------------------|


  Q    E  E  E  E  E  E     E  E  E  E  E  E  E  E     E  E  Q    H         
-------------------------|--------------------------|----------------------|
-------------------------|--------------------------|----------------------|
--4----4--4--4--7--4--7--|--4--4--4--4--4--7--4--7--|--4-------------------|
--x----x--x--x--x--x--x--|--x--x--x--x--x--x--x--x--|--x-------------------|
--2----2--2--2--5--2--5--|--2--2--2--2--2--5--2--5--|--2-------------------|
-------------------------|--------------------------|----------------------|


              E  E  E  E  E  E  E  E     E  E  E  E  E  E  E  E   
-----------|--------------------------|--------------------------|
-----------|--------------------------|--------------------------|
-----------|--9--9--9--9--9--7--7--9--|--9--9--9--9--9--7--7--9--|
-----------|--x--x--x--x--x--x--x--x--|--x--x--x--x--x--x--x--x--|
-----------|--7--7--7--7--7--5--5--7--|--7--7--7--7--7--5--5--7--|
-----------|--------------------------|--------------------------|


                      W                                            
  W                   W                   E  E  E  E  E  E  E  E   
-------------------|-------------------|--------------------------|
-------------------|-------------------|--------------------------|
-------------------|-------------------|--9--9--9--9--9--7--7--9--|
-------------------|-------------------|--x--x--x--x--x--x--x--x--|
--7----------------|--L----------------|--7--7--7--7--7--5--5--7--|
-------------------|-------------------|--------------------------|


  E  E  E  E  E  E  E  E     E  E  E  E  E  E  E  E   
--------------------------|--------------------------|
--------------------------|--------------------------|
--9--9--9--9--9--7--7--9--|--------------------------|
--x--x--x--x--x--x--x--x--|--7--7-----7--7--7-----7--|
--7--7--7--7--7--5--5--7--|--7--7-----7--7--7-----7--|
--------------------------|--5--5-----5--5--5-----5--|


  E  E  E  E  E  E  E  E     E  E  E  E  E  E  E  E   
--------------------------|--------------------------|
--------------------------|--------------------------|
--------------------------|--------------------------|
--7--7-----7--7--7--7--5--|--7--7-----7--7--7-----7--|
--7--7-----7--7--7--7--5--|--7--7-----7--7--7-----7--|
--5--5-----5--5--5--5--3--|--5--5-----5--5--5-----5--|


  E  E  E  E  E  E  E  E     E  E  E  E  E  E  E  E   
--------------------------|--------------------------|
--------------------------|--------------------------|
--------------------------|--5--5-----5--5--5-----5--|
--7--7-----7--7--7--7--5--|--5--5-----5--5--5-----5--|
--7--7-----7--7--7--7--5--|--3--3-----3--3--3-----3--|
--5--5-----5--5--5--5--3--|--------------------------|


  E  E  E  E  E  E  E  E     E  E  E  E  E  E  E  E     E  E  Q    H         
--------------------------|--------------------------|----------------------|
--------------------------|--------------------------|----------------------|
--5--5-----5--5--5--5--5--|--7--7--7--7--7--7--7--7--|--7-------------------|
--5--5-----5--5--5--5--5--|--7--7--7--7--7--7--7--7--|--7-------------------|
--3--3-----3--3--3--3--3--|--5--5--5--5--5--5--5--5--|--5-------------------|
--------------------------|--------------------------|----------------------|


  Q    Q    Q    Q       E   E   E   E   E   E  E  E     Q    Q    Q    Q     
----------------------|-------------------------------|----------------------|
----------------------|-------------------------------|----------------------|
--9----9----9----9----|--9--11--11--12--12--14--7--9--|--9----9----9----9----|
--x----x----x----x----|--x---x---x---x---x---x--x--x--|--x----x----x----x----|
--7----7----7----7----|--7---9---9--10--10--12--5--7--|--7----7----7----7----|
----------------------|-------------------------------|----------------------|


  E   E   E   E   E   E   E   E     Q    Q    Q    Q       Q    Q    Q    Q     
---------------------------------|----------------------|----------------------|
---------------------------------|----------------------|----------------------|
--9--11--11--12--12--14--11--11--|--9----9----9----9----|--9----9----9----9----|
--x---x---x---x---x---x---x---x--|--x----x----x----x----|--x----x----x----x----|
--7---9---9--10--10--12---9---9--|--7----7----7----7----|--7----7----7----7----|
---------------------------------|----------------------|----------------------|


  Q    Q    Q    Q       Q    Q    Q    Q       E  E  E  E  E  E  E  E   
----------------------|----------------------|--------------------------|
----------------------|----------------------|--------------------------|
--9----9----9----9----|--9----9----9----9----|--9--9--9--9--9--9--9--9--|
--x----x----x----x----|--x----x----x----x----|--x--x--x--x--x--x--x--x--|
--7----7----7----7----|--7----7----7----7----|--7--7--7--7--7--7--7--7--|
----------------------|----------------------|--------------------------|


  E   E   E   E   E   E  E  E     E  E  E  E  E  E  E  E   
-------------------------------|--------------------------|
-------------------------------|--------------------------|
--9--11--11--12--12--14--7--9--|--9--9--9--9--9--9--9--9--|
--x---x---x---x---x---x--x--x--|--x--x--x--x--x--x--x--x--|
--7---9---9--10--10--12--5--7--|--7--7--7--7--7--7--7--7--|
-------------------------------|--------------------------|


  E  E  E  E   E   E   E   E     E  E  E  E  E  E  E  E   
------------------------------|--------------------------|
------------------------------|--------------------------|
--9--9--9--9--12--14--11--11--|--9--9--9--9--9--9--9--9--|
--x--x--x--x---x---x---x---x--|--x--x--x--x--x--x--x--x--|
--7--7--7--7--10--12---9---9--|--7--7--7--7--7--7--7--7--|
------------------------------|--------------------------|


  E  E  E  E  E  E  E  E     E  E  E  E  E  E  E  E   
--------------------------|--------------------------|
--------------------------|--------------------------|
--9--9--9--9--9--9--9--9--|--9--9--9--9--9--9--9--9--|
--x--x--x--x--x--x--x--x--|--x--x--x--x--x--x--x--x--|
--7--7--7--7--7--7--7--7--|--7--7--7--7--7--7--7--7--|
--------------------------|--------------------------|


  E  E  E  E  E  E  E  E                                                   
--------------------------|-----|-----|-----|-----|-----|-----|-----|-----|
--------------------------|-----|-----|-----|-----|-----|-----|-----|-----|
--9--9--9--9--9--9--9--9--|-----|-----|-----|-----|-----|-----|-----|-----|
--x--x--x--x--x--x--x--x--|-----|-----|-----|-----|-----|-----|-----|-----|
--7--7--7--7--7--7--7--7--|-----|-----|-----|-----|-----|-----|-----|-----|
--------------------------|-----|-----|-----|-----|-----|-----|-----|-----|


  E  E  E  E  E  E  E  E     E  E  E  E  E  E  E  E         
--------------------------|--------------------------|-----|
--------------------------|--------------------------|-----|
--9--9--9--9--9--7--7--9--|--9--9--9--9--9--7--7--9--|-----|
--x--x--x--x--x--x--x--x--|--x--x--x--x--x--x--x--x--|-----|
--7--7--7--7--7--5--5--7--|--7--7--7--7--7--5--5--7--|-----|
--------------------------|--------------------------|-----|


  E  E  E  E  E  E  E  E     E  E  E  E  E  E  E  E   
--------------------------|--------------------------|
--------------------------|--------------------------|
--9--9--9--9--9--9--9--9--|--9--9--9--9--9--7--7--9--|
--x--x--x--x--x--x--x--x--|--x--x--x--x--x--x--x--x--|
--7--7--7--7--7--7--7--7--|--7--7--7--7--7--5--5--7--|
--------------------------|--------------------------|


  E  E  E  E  E  E  E  E     E  E  E  E  E  E  E  E   
--------------------------|--------------------------|
--------------------------|--------------------------|
--9--9--9--9--9--7--7--9--|--------------------------|
--x--x--x--x--x--x--x--x--|--7--7-----7--7--7-----7--|
--7--7--7--7--7--5--5--7--|--7--7-----7--7--7-----7--|
--------------------------|--5--5-----5--5--5-----5--|


  E  E  E  E  E  E  E  E     E  E  E  E  E  E  E  E   
--------------------------|--------------------------|
--------------------------|--------------------------|
--------------------------|--------------------------|
--7--7-----7--7--7--7--5--|--7--7-----7--7--7-----7--|
--7--7-----7--7--7--7--5--|--7--7-----7--7--7-----7--|
--5--5-----5--5--5--5--3--|--5--5-----5--5--5-----5--|


  E  E  E  E  E  E   E  E     Q    Q    Q    Q     
---------------------------|----------------------|
---------------------------|----------------------|
---------------------------|--9----9----9----9----|
--7--7-----7--7--9--10-----|--x----x----x----x----|
--7--7-----7--7--9--10-----|--7----7----7----7----|
--5--5-----5--5--7---8-----|----------------------|


  E   E   E   E   E   E  E  E     Q    Q    Q    Q     
-------------------------------|----------------------|
-------------------------------|----------------------|
--9--11--11--12--12--14--7--9--|--9----9----9----9----|
--x---x---x---x---x---x--x--x--|--x----x----x----x----|
--7---9---9--10--10--12--5--7--|--7----7----7----7----|
-------------------------------|----------------------|


  E   E   E   E   E   E   E   E     Q    Q    Q    Q       Q    Q    Q    Q     
---------------------------------|----------------------|----------------------|
---------------------------------|----------------------|----------------------|
--9--11--11--12--12--14--11--11--|--9----9----9----9----|--9----9----9----9----|
--x---x---x---x---x---x---x---x--|--x----x----x----x----|--x----x----x----x----|
--7---9---9--10--10--12---9---9--|--7----7----7----7----|--7----7----7----7----|
---------------------------------|----------------------|----------------------|


  Q    Q    Q    Q       Q    Q    Q    Q       E  E  E  E  E  E  E  E   
----------------------|----------------------|--------------------------|
----------------------|----------------------|--------------------------|
--9----9----9----9----|--9----9----9----9----|--9--9--9--9--9--9--9--9--|
--x----x----x----x----|--x----x----x----x----|--x--x--x--x--x--x--x--x--|
--7----7----7----7----|--7----7----7----7----|--7--7--7--7--7--7--7--7--|
----------------------|----------------------|--------------------------|


  E   E   E   E   E   E  E  E     E  E  E  E  E  E  E  E   
-------------------------------|--------------------------|
-------------------------------|--------------------------|
--9--11--11--12--12--14--7--9--|--9--9--9--9--9--9--9--9--|
--x---x---x---x---x---x--x--x--|--x--x--x--x--x--x--x--x--|
--7---9---9--10--10--12--5--7--|--7--7--7--7--7--7--7--7--|
-------------------------------|--------------------------|


  E  E  E  E   E   E   E   E     E  E  E  E  E  E  E  E   
------------------------------|--------------------------|
------------------------------|--------------------------|
--9--9--9--9--12--14--11--11--|--9--9--9--9--9--9--9--9--|
--x--x--x--x---x---x---x---x--|--x--x--x--x--x--x--x--x--|
--7--7--7--7--10--12---9---9--|--7--7--7--7--7--7--7--7--|
------------------------------|--------------------------|


  E   E   E   E   E   E   E   E     W                   W                       
---------------------------------|-------------------|-------------------|-----|
---------------------------------|-------------------|-------------------|-----|
--9--11--11--12--12--14--12--11--|--9----------------|--L----------------|-----|
--x---x---x---x---x---x---x---x--|--x----------------|-------------------|-----|
--7---9---9--10--10--12--10---9--|--7----------------|--L----------------|-----|
---------------------------------|-------------------|-------------------|-----|


                    E   E  E   E  E   E  E  E     E   E  E   E  E   E  E  E   
-----|-----|-----|-----------------------7-----|-----------------------5--7--|
-----|-----|-----|--7h--8--7h--8--7h--8-----8--|--7h--8--7h--8--7h--8--------|
-----|-----|-----|-----------------------------|-----------------------------|
-----|-----|-----|-----------------------------|-----------------------------|
-----|-----|-----|-----------------------------|-----------------------------|
-----|-----|-----|-----------------------------|-----------------------------|


  Q    Q    E  E  E  E     E  E  Q    E  E  E  E     Q    Q    E   E  E  E   
------------------------|-------------------------|-------------------------|
------------------------|-------------------------|-------------------------|
--5----5----5--5--5--7--|--L--7--7----7--7--7--7--|--9----9----9--11--9--8--|
--x----x----x--x--x--x--|-----x--x----x--x--x--x--|--x----x----x---x--x--x--|
--3----3----3--3--3--5--|--L--5--5----5--5--5--5--|--7----7----7---9--7--6--|
------------------------|-------------------------|-------------------------|


  E  E  Q    E  E  E  E     Q    Q    E  E  E  E     E  E  E  E  E  E  E  E   
-------------------------|------------------------|--------------------------|
-------------------------|------------------------|--------------------------|
--L--8--8----4--4--4--4--|--5----5----5--5--5--5--|--7--7--7--7--7--7--7--7--|
--L--x--x----x--x--x--x--|--x----x----x--x--x--x--|--x--x--x--x--x--x--x--x--|
--L--6--6----2--2--2--2--|--3----3----3--3--3--3--|--5--5--5--5--5--5--5--5--|
-------------------------|------------------------|--------------------------|


  W                   W                                     
-------------------|-------------------|-------------------|
-------------------|-------------------|-------------------|
--9----------------|--L----------------|-------------------|
--x----------------|--L----------------|-------------------|
--7----------------|--L----------------|-------------------|
-------------------|-------------------|-------------------|


                                                                    NH    
  H        E  E   E   E      W                     Q.     E  Q      Q     
---------------------10h--|--7----------------|--------------------------|
--------------7h--8-------|-------------------|--------------------------|
--------------------------|-------------------|--/12------9--L----<>7----|
--------------------------|-------------------|--------------------------|
--------------------------|-------------------|--------------------------|
--------------------------|-------------------|--------------------------|


    NH                                                        
    W                   W                                     
---------------------|-------------------|-------------------|
---------------------|-------------------|-------------------|
---------------------|-------------------|-------------------|
--<>7----------------|--L----------------|-------------------|
---------------------|-------------------|-------------------|
---------------------|-------------------|-------------------|


-------------------|-------------------|-------------------|-------------------|
-------------------|-------------------|-------------------|-------------------|
-------------------|-------------------|-------------------|-------------------|
-------------------|-------------------|-------------------|-------------------|
-------------------|-------------------|-------------------|-------------------|
-------------------|-------------------|-------------------|-------------------|


-------------------|-------------------|-------------------|-------------------|
-------------------|-------------------|-------------------|-------------------|
-------------------|-------------------|-------------------|-------------------|
-------------------|-------------------|-------------------|-------------------|
-------------------|-------------------|-------------------|-------------------|
-------------------|-------------------|-------------------|-------------------|


-------------------|-------------------|-------------------|-------------------|
-------------------|-------------------|-------------------|-------------------|
-------------------|-------------------|-------------------|-------------------|
-------------------|-------------------|-------------------|-------------------|
-------------------|-------------------|-------------------|-------------------|
-------------------|-------------------|-------------------|-------------------|


-------------------|-------------------|-------------------|
-------------------|-------------------|-------------------|
-------------------|-------------------|-------------------|
-------------------|-------------------|-------------------|
-------------------|-------------------|-------------------|
-------------------|-------------------|-------------------|


  E  E  E  E  E  E  E  E     E   E   E   E   E   E  E  E   
--------------------------|-------------------------------|
--------------------------|-------------------------------|
--9--9--9--9--9--9--9--9--|--9--11--11--12--12--14--7--9--|
--x--x--x--x--x--x--x--x--|--x---x---x---x---x---x--x--x--|
--7--7--7--7--7--7--7--7--|--7---9---9--10--10--12--5--7--|
--------------------------|-------------------------------|


  E  E  E  E  E  E  E  E     E   E   E   E   E   E   E   E   
--------------------------|---------------------------------|
--------------------------|---------------------------------|
--9--9--9--9--9--9--9--9--|--9--11--11--12--12--14--11--11--|
--x--x--x--x--x--x--x--x--|--x---x---x---x---x---x---x---x--|
--7--7--7--7--7--7--7--7--|--7---9---9--10--10--12---9---9--|
--------------------------|---------------------------------|


  E  E  E  E  E  E  E  E     E  E  E  E  E  E  E  E   
--------------------------|--------------------------|
--------------------------|--------------------------|
--9--9--9--9--9--9--9--9--|--9--9--9--9--9--9--9--9--|
--x--x--x--x--x--x--x--x--|--x--x--x--x--x--x--x--x--|
--7--7--7--7--7--7--7--7--|--7--7--7--7--7--7--7--7--|
--------------------------|--------------------------|


  E  E  E  E  E  E  E  E     E  E  E  E  E  E  E  E   
--------------------------|--------------------------|
--------------------------|--------------------------|
--9--9--9--9--9--9--9--9--|--9--9--9--9--9--9--9--9--|
--x--x--x--x--x--x--x--x--|--x--x--x--x--x--x--x--x--|
--7--7--7--7--7--7--7--7--|--7--7--7--7--7--7--7--7--|
--------------------------|--------------------------|


  E  E  E  E  E  E  E  E     E   E   E   E   E   E  E  E   
--------------------------|-------------------------------|
--------------------------|-------------------------------|
--9--9--9--9--9--9--9--9--|--9--11--11--12--12--14--7--9--|
--x--x--x--x--x--x--x--x--|--x---x---x---x---x---x--x--x--|
--7--7--7--7--7--7--7--7--|--7---9---9--10--10--12--5--7--|
--------------------------|-------------------------------|


  E  E  E  E  E  E  E  E     E  E  E  E   E   E   E   E   
--------------------------|------------------------------|
--------------------------|------------------------------|
--9--9--9--9--9--9--9--9--|--9--9--9--9--12--14--11--11--|
--x--x--x--x--x--x--x--x--|--x--x--x--x---x---x---x---x--|
--7--7--7--7--7--7--7--7--|--7--7--7--7--10--12---9---9--|
--------------------------|------------------------------|


  Q    Q    Q    Q       Q    Q    Q    Q       Q    Q    Q    Q     
----------------------|----------------------|----------------------|
----------------------|----------------------|----------------------|
--9----9----9----9----|--9----9----9----9----|--9----9----9----9----|
--x----x----x----x----|--x----x----x----x----|--x----x----x----x----|
--7----7----7----7----|--7----7----7----7----|--7----7----7----7----|
----------------------|----------------------|----------------------|


  E  E  E  E  E  E  S  S S  S    H        H          
------------------------------|--------------------||
------------------------------|--------------------||
------------------------------|--------------------||
-----------5--L--7--5p-4------|--2-----------------||
--7--7--5----------------7p-5-|--2-----------------||
------------------------------|--0-----------------||




Duration Legend
---------------
W - whole
H - half
Q - quarter
E - 8th
S - 16th
T - 32nd
X - 64th
. - note dotted
|-n-|  - n-tuplets


Tablature Legend
----------------
L - tied note
x - dead note
g - grace note
(n) - ghost note
> - accentuded note
NH - natural harmonic
AH - artificial harmonic
TH - tapped harmonic
SH - semi harmonic
PH - pitch harmonic
h - hammer on
p - pull off
b - bend
br - bendRelease
pb - preBend
pbr - preBendRelease
brb - bendReleaseBend
\n/ - tremolo bar dip
\n - tremolo bar dive
-/n - tremolo bar Release up
/n\ - tremolo bar inverted dip
/n - tremolo bar return
-\n - tremolo bar Release down
S - shift slide
s - legato slide
/ -  slide into from below or out of upwards
\ -  slide into from above or out of downwards
~ - vibrato
W - wide vibrato
tr - trill
TP - tremolo picking
T - tapping
S - slap
P - pop
< - fade in
^ - brush up
v - brush down

Tap to rate this tab
# A B C D E F G H I J K L M N O P Q R S T U V W X Y Z