Guitaretab - guitar tabs
Song name
# A B C D E F G H I J K L M N O P Q R S T U V W X Y Z

Rise Against - Good Left Undone Acoustic tab

Highlighted       Show chord diagrams
This is my first tab. its based on this, http://www.youtube.com/watch?v=RNF0RhxRn5I,
video so if you wanna figure out the strumming watch it ;)

Intro:
e-----------------------------------------|
B-----------------------------------------|
G-----6---------6------13--------13-------|
D-----x---------x-------x--------x--------|
A-----4---------4------11--------11-------|
E-----------------------------------------|


C#                               A
In fields where nothing grew but weeds,
                       E
I found a flower at my feet,
        B           F#         D#  D#  E  
 (single  strum)
Bending there in my direction,
C#                          A
I wrapped a hand around its stem,
                              E
I pulled until the roots gave in,
        B                   F#
Finding there what Iíd been missing,

D#  D#  E  D#  B
        But I  knowÖ

C#                                   A   G# F#
So I tell myself, I tell myself itís wrong.
G#        C#                                A   G# F#
Thereís a point we pass from which we canít return.
G#         E                F#     A G# F#
I felt the cold rain of the coming storm.


               C#
All because of you,
                   E
I havenít slept in so long.
             B                       A
When I do I dream of drowning in the ocean,
                C#                       E
Longing for the shore where I can lay my head down,
                 B
Iíll follow your voice,
                A (ring out when strum on "out")
All you have to do is shout it out.


(like intro)
e-----------------------------------------|
B-----------------------------------------|
G-----6---------6------13--------16-------|
D-----x---------x-------x--------x--------|
A-----4---------4------11--------14-------|
E-----------------------------------------|

C#                           A
Inside my hands these petals browned,
                        E
Dried up, falen n to the ground
           B           F#         D#  D#  E 
D#  (single  strum)
But it was already too late now.
C#                              A
I pushed my fingers through the earth,
                            E
Returned this flower to the dirt,
            B              F#
So it could live. I walked away now.

D#  D#  E  D#  B
        But I  knowÖ
[ Tab from: http://www.guitaretab.com/r/rise-against/115598.html ]
      C#                                 A   G# F#
Not a day goes by that I donít feel this burn.
G#        C#                                A   G# F#
Thereís a point we pass from which we canít return.
G#         E                F#     A G# F#
I felt the cold rain of the coming storm.

               C#
All because of you,
                   E
I havenít slept in so long.
             B                       A
When I do I dream of drowning in the ocean,
                C#                       E
Longing for the shore where I can lay my head down,
                 B
Iíll follow your voice,
                A (it ring out when strum on "out")
All you have to do is shout it out.


*solo*
rhythm guitar plays: C#  E B  A

E|------------------------------------------------------------------------------------|
A|------------------------------------------------------------------------------------|
D|-9-9-9-11-11-11-13-13--13-13-13-14-14-14-16-16\11-11-11-13-13-13-11-11-11s-9s-11s-9-|
G|-x-x-x-x--x--x--xx-xx--xx-xx-xx-xx-xx-xx-xx-xx\x--x--x--xx-xx-xx-x--x--xs--xs-xs--x-|
B|-7-7-7-9--9--9--11-11--11-11-11-12-12-12-14-14\9--9--9--11-11-11-9--9--9s--7s-9s--7-|
E|------------------------------------------------------------------------------------|

E|--------------------------------------------------------------------------------|
A|--------------------------------------------------------------------------------|
D|-9-9-9-11-11-11-13-13--13-13-13-14-14-14-16-16\8-8-8-9-9-9-9-11-9-9-9-9-9-9-9-9-|
G|-x-x-x-x--x--x--xx-xx--xx-xx-xx-xx-xx-xx-xx-xx\x-x-x-x-x-x-x-x--x-x-x-x-x-x-x-x-|
B|-7-7-7-9--9--9--11-11--11-11-11-12-12-12-14-14\6-6-6-7-7-7-7s9--7-7-7-7-7-7-7-7-|
E|--------------------------------------------------------------------------------|

play on bass strings but make last "A" a power chord
C# E B A


               C#
All because of you,
                   E
I havenít slept in so long.
            B                        A
When I do I dream of drowning in the ocean,
                C#                       E
Longing for the shore where I can lay my head down,
      B                    A
      Inside these arms of yours.
               C#
All because of you,
             E
I believe in angels.
                  B
Not the kind with wings,
                      A
No, not the kind with halos,
                        C#
The kind that bring you home,
                    E
When home becomes a strange place.
                 B
Iíll follow your voice,
                A
All you have to do is shout it out.
Related for Good Left Undone Acoustic tab