Song name
# A B C D E F G H I J K L M N O P Q R S T U V W X Y Z

Rise Against - The Dirt Whispered tab

-----------------------------------------------------------------------------
			     The Dirt Whispered - Rise Against
-----------------------------------------------------------------------------

This is my favorite song by Rise Against and I noticed that no one had made tabs for it 
I decided to do them for you =) If any wrong stuff just e-mail Me!

Tabbed by:David Gonzalez
Email:AnThEmPt4@Aol.com

Tuning:Standard

Intro:
But the dirt made no sound tonight...

Guitar 1
e|---------------------------------------------------------------------------|
B|---------------------------------------------------------------------------|
G|-----66--8/10---6666666----66--8/10---8888888---66--8/10---6666666---------|
D|-----xx--x/x----xxxxxxx----xx--x/x----xxxxxxx---xx--x/x----xxxxxxx---------|
A|-----44--6/8----4444444----44--6/8----6666666---44--6/8----4444444---------|
E|---------------------------------------------------------------------------|
Intro contnued:
e|---------------------------------------------------------------------------|
B|---------------------------------------------------------------------------|
G|----11111111-10101010--88888----5-6----------------------------------------|
D|-----x-x-x-x--x-x-x-x--xxxxx----x-x----------------------------------------|
A|-----9-9-9-9--8-8-8-8--66666----3-4----------------------------------------|
E|---------------------------------------------------------------------------|

Guitar 2:
e|---------------------------------------------------------------------------|
B|---------------------------------------------------------------------------|
G|---------666--66666666--------666------------------------------------------|
D|---444---xxx--66666666---444--xxx----666666666-----------------------------|
A|---444---444--44444444---444--444----666666666-----------------------------|
E|---222-------------------222---------444444444-----------------------------|
Repeat two times

Verse: Echoes of songs still lurk

Both Guitars:
e|---------------------------------------------------------------------------|
B|---------------------------------------------------------------------------|
G|---------666--66666666--------66-------------------------------------------|
D|---444---xxx--66666666---444--xx-----666666666-----------------------------|
A|---444---444--44444444---444--44-----666666666-----------------------------|
E|---222--------********---222---------444444444-----------------------------|
      **                    **          ********
Verse continued: Danced just to please the gods
e|---------------------------------------------------------------------------|
B|---------------------------------------------------------------------------|
G|---------666--66666666--------66-------------------------------------------|
D|---444---xxx--66666666---444--xx-----666666666-----------------------------|
A|---444---444--44444444---444--44-----666666666-----------------------------|
E|---222--------********---222---------444444444-----------------------------|
      **                    **

Pre-Chorus: So it goes

Guitar one:
e|---------------------------------------------------------------------------|
B|---------------------------------------------------------------------------|
G|---1010101010101010--88888888--66666666------------------------------------|
D|---x-x-x-x-x-x-x-x---xxxxxxxx--xxxxxxxx------------------------------------|
A|---8-8-8-8-8-8-8-8---66666666--44444444------------------------------------|
E|---------------------------------------------------------------------------|

Guitar Two:
e|---------------------------------------------------------------------------|
B|---------------------------------------------------------------------------|
G|---33333333----------------------------------------------------------------|
D|---33333333--66666666--44444444--------------------------------------------|
A|---11111111--66666666--44444444--------------------------------------------|
E|-------------44444444--22222222--------------------------------------------|


Both Guitars:
e|---------------------------------------------------------------------------|
B|---------------------------------------------------------------------------|
G|---------------------------------------------------------------------------|
D|-----44444444-44444444-----------------------------------------------------|
A|-----44444444-44444444-----------------------------------------------------|
E|-----22222222-22222222-----------------------------------------------------|
       ********

Chorus: On cold nights

Both Guitars:
e|---------------------------------------------------------------------------|
B|---------------------------------------------------------------------------|
G|---666666666666------------------------------------------------------------|
D|---666666666666--666666666666--444444444444444444444444--------------------|
A|---444444444444--666666666666--444444444444444444444444--------------------|
E|-----------------444444444444--222222222222222222222222--------------------|

Chorus continued: The concrete
e|---------------------------------------------------------------------------|
B|---------------------------------------------------------------------------|
G|---666666666666------------------------------666666---------6~-------------|
D|---666666666666--666666666666--444444444444--xxxxxx--666666-x~-------------|
A|---444444444444--666666666666--444444444444--444444--666666-4~-------------|
E|-----------------444444444444--222222222222----------444444----------------|


Guitar One:
e|---------------------------------------------------------------------------|
B|--14--14~------------------------------------------------------------------|
G|----13-----13~-------------------------------------------------------------|
D|---------------------------------------------------------------------------|
A|---------------------------------------------------------------------------|
E|---------------------------------------------------------------------------|

Verse 2: The postcard says

Both Guitars:
e|---------------------------------------------------------------------------|
B|---------------------------------------------------------------------------|
G|-------66666666-------66----------------6/8-6--6666666-------66-------------|
D|---4---xxxxxxxx--444--xx-66666666--444--x/x-6--6666666--444--xx--66666666--|
A|---4---44444444--444--44-66666666--444--4/6-4--4444444--444--44--66666666--|
E|---2-------------222-----44444444--222---------*******--222------44444444--|
                    **      *******   **                   **

Pre-Chorus: But that was then


Guitar one:
e|---------------------------------------------------------------------------|
B|---------------------------------------------------------------------------|
G|---1010101010101010--88888888--66666666------------------------------------|
D|---x-x-x-x-x-x-x-x---xxxxxxxx--xxxxxxxx------------------------------------|
A|---8-8-8-8-8-8-8-8---66666666--44444444------------------------------------|
E|---------------------------------------------------------------------------|

Guitar Two:
e|---------------------------------------------------------------------------|
B|---------------------------------------------------------------------------|
G|---33333333----------------------------------------------------------------|
D|---33333333--66666666--44444444--------------------------------------------|
A|---11111111--66666666--44444444--------------------------------------------|
E|-------------44444444--22222222--------------------------------------------|

Both Guitars:
e|---------------------------------------------------------------------------|
B|---------------------------------------------------------------------------|
G|---------------------------------------------------------------------------|
D|-----44444444-44444444-----------------------------------------------------|
A|-----44444444-44444444-----------------------------------------------------|
E|-----22222222-22222222-----------------------------------------------------|
       ********

Chorus: On cold nights

Both Guitars
e|---------------------------------------------------------------------------|
B|---------------------------------------------------------------------------|
G|---666666666666------------------------------------------------------------|
D|---666666666666--666666666666--444444444444444444444444--------------------|
A|---444444444444--666666666666--444444444444444444444444--------------------|
E|-----------------444444444444--222222222222222222222222--------------------|

Chorus continued: The concrete
e|---------------------------------------------------------------------------|
B|---------------------------------------------------------------------------|
G|---666666666666----------------------------------66666666------------------|
D|---666666666666--666666666666--4444444444444444--xxxxxxxx--66666666--------|
A|---444444444444--666666666666--4444444444444444--44444444--66666666--------|
E|-----------------444444444444--2222222222222222------------44444444--------|


Interlude:A destination

Guitar 1
e|---------------------------------------------------------------------------|
B|-----------6666-------------6666-------------6666----77776666--------------|
G|---55556666----6666-55556666----6666-55556666----6666--------66668888------|
D|---------------------------------------------------------------------------|
A|---------------------------------------------------------------------------|
E|---------------------------------------------------------------------------|

e|---------------------------------------------------------------------------|
B|-----------6666-------------66667777----------6666----77776666-------------|
G|---55556666----6666-55556666---------55556666-----6666--------66668888-----|
D|---------------------------------------------------------------------------|
A|---------------------------------------------------------------------------|
E|---------------------------------------------------------------------------|

Guitar 2:
e|---------------------------------------------------------------------------|
B|---------------------------------------------------------------------------|
G|---------------------------------------6666666666666666-888888888888888----|
D|----888888888888888--666666666666666---6666666666666666-888888888888888----|
A|----888888888888888--666666666666666---4444444444444444-666666666666666----|
E|----666666666666666--444444444444444---------------------------------------|
       **************   **************
Repeat Two Times


Both Guitars:
e|---------------------------------------------------------------------------|
B|---------------------------------------------------------------------------|
G|--6666666666666666--5555555555555555--66~----------------------------------|
D|--xxxxxxxxxxxxxxxx--xxxxxxxxxxxxxxxx--66~----------------------------------|
A|--4444444444444444--3333333333333333--44~----------------------------------|
E|---------------------------------------------------------------------------|


Interlude 2: Her breath to hear

Guitar 1:
e|---------------------------------------------------------------------------|
B|---------------------------------------------------------------------------|
G|-----13-11-10-10-10-10-10-10-10-10--11-10--88888888------------------------|
D|-----x--x--x--x--x--x--x--x--x--x---x--x---xxxxxxxx------------------------|
A|-----11-9--8--8--8--8--8--8--8--8---9--8---66666666------------------------|
E|---------------------------------------------------------------------------|


Both Guitars
e|---------------------------------------------------------------------------|
B|---------------------------------------------------------------------------|
G|---------------------------------------------------------------------------|
D|---444444444---------------------------------------------------------------|
A|---444444444---------------------------------------------------------------|
E|---222222222---------------------------------------------------------------|
      *******

Pickslide

Chorus: On cold nights

Both Guitars:
e|---------------------------------------------------------------------------|
B|---------------------------------------------------------------------------|
G|---666666666666------------------------------------------------------------|
D|---666666666666--666666666666--444444444444444444444444--------------------|
A|---444444444444--666666666666--444444444444444444444444--------------------|
E|-----------------444444444444--222222222222222222222222--------------------|

Chorus continued: The concrete
e|---------------------------------------------------------------------------|
B|---------------------------------------------------------------------------|
G|---66666666----------------------66666666----------------------------------|
D|---66666666--66666666--44444444--xxxxxxxx--66666666------------------------|
A|---44444444--66666666--44444444--44444444--66666666------------------------|
E|-------------44444444--22222222------------44444444------------------------|

Ending Chorus: I slip

Guitar 1:
e|---------------------------------------------------------------------------|
B|---------------------------------------------------------------------------|
G|-----6--6/8/10------6/8/10/6---6/8/10/11-10-11-10--------------------------|
D|-----x--x/x/x-------x/x/x-/x---x/x/x/-x--x--x--x---------------------------|
A|-----4--4/6/8-------4/6/8-/4---4/6/8/-9--8--9--8---------------------------|
E|---------------------------------------------------------------------------|

e|---------------------------------------------------------------------------|
B|---------------------------------------------------------------------------|
G|-----6--6/8/10------6/8/10/6---6/8/10/11-10-11-13--------------------------|
D|-----x--x/x/x-------x/x/x-/x---x/x/x/-x--x--x--x---------------------------|
A|-----4--4/6/8-------4/6/8-/4---4/6/8/-9--8--9--11--------------------------|
E|---------------------------------------------------------------------------|


Guitar 2:
e|---------------------------------------------------------------------------|
B|---------------------------------------------------------------------------|
G|---666666666666------------------------------------------------------------|
D|---666666666666--666666666666--444444444444444444444444--------------------|
A|---444444444444--666666666666--444444444444444444444444--------------------|
E|-----------------444444444444--222222222222222222222222--------------------|

e|---------------------------------------------------------------------------|
B|---------------------------------------------------------------------------|
G|---666666666666----------------------------------66666666------------------|
D|---666666666666--666666666666--4444444444444444--xxxxxxxx--66666666--------|
A|---444444444444--666666666666--4444444444444444--44444444--66666666--------|
E|-----------------444444444444--2222222222222222------------44444444--------|


End On:

Guitar One
e|----------|
B|----------|
G|----18~---|
D|----x-~---|
A|----16~---|
E|----------|

Guitar Two
e|---------|
B|---------|
G|----6~---|
D|----6~---|
A|----4~---|
E|---------|

There you go =)
a very fun song to play!

| /  slide up
| \  slide down
| h  hammer-on
| p  pull-off
| ~  vibrato
| +  harmonic
| x  Mute note
=============================================================================
Tap to rate this tab
# A B C D E F G H I J K L M N O P Q R S T U V W X Y Z