Song name
# A B C D E F G H I J K L M N O P Q R S T U V W X Y Z

Rise Against - Re-education Through Labor tab

Song: Re-Education (Through Labor)
Band: Rise Against
Tuning: Down 1/2 Step

This isn't all of the guitars, this is the tab for what i play in my cover of the song on youtube.

http://www.youtube.com/watch?v=cS78oXhKTQk

if you use this tab you at least owe me the time to view, rate, and comment on my video. 
think of the time i'm saving you by tabbing this.

Also, i put everything in order.  i even repeated parts when they are repeated in the 
so if you just follow this part by
part you'll know the whole song as i play it in my video. Pay attention so side notes.

E-------------------|
B-------------------|
G-------------------|
D--2-2-2-2-2-2-2-2--|   4 Times (32 strums in total)
A--2-2-2-2-2-2-2-2--|
E--0-0-0-0-0-0-0-0--|
PM . . . . . . . .

E------------------|
B------------------|
G--------5-5-------|
D--2-2-2-5-5-5-5-7-|     3 Times, then
A--2-2-2-3-3-5-5-7-|
E--0-0-0-----3-3-5-|

E-----------------|
B-----------------|
G--------5-5------|
D--2-2-2-5-5-5-5--|   Mute after Last Strum
A--2-2-2-3-3-5-5--|
E--0-0-0-----3-3--|

E---------------------|
B---------------------|
G---------------------|   3 times, then
D--2-0-2/5-7-5h7p5p0--|
A---------------------|
E---------------------|

E---------------|
B---------------|
G---------------|
D--2-0-2/5-0-0--|     mute after last note
A---------------|
E---------------|

E---------------------|
B---------------------|
G---------------------|   4 times, then end on
D--2-0-2/5-7-5h7p5p0--|
A---------------------|
E---------------------|

E---------------------|
B---------------------|
G---------------------|  Don't let ring, stop abruptly
D--2------------------|
A---------------------|
E---------------------|

"To the sound of a heartbeat pounding away..."

E------------------|
B------------------|
G--------5-5-------|
D--2-2-2-5-5-5-5-7-|     2 Times, then
A--2-2-2-3-3-5-5-7-|
E--0-0-0-----3-3-5-|

E------------------|
B------------------|
G------------------|
D------------------|     Let Ring
A--7~~~~~~~~~~~~~~~
E------------------

E------------------|
B------------------|
G--------5-5-------|
D--2-2-2-5-5-5-5-7-|     2 Times, then
A--2-2-2-3-3-5-5-7-|
E--0-0-0-----3-3-5-|

E-----------------------------------|
B-----------------------------------|
G-----------------------------------|    2 times, but on the second time don't
D--7-7-x-7-7-7-x-7-7-7-x-7-7-7-(5)--|    play the chord in parentheses
A--7-7-x-7-7-7-x-7-7-7-x-7-7-7-(5)--|
E--5-5-x-5-5-5-x-5-5-5-x-5-5-5-(3)--|

E-----------------------------------|
B-----------------------------------|
G--5-5-x-5-5-5-x-5-5-5-x-5-5-5-5----|
D--5-5-x-5-5-5-x-5-5-5-x-5-5-5-5----|
A--3-3-x-3-3-3-x-3-3-3-x-3-3-3-3----|
E-----------------------------------|

E---------------------|
B---------------------|
G--7-7-7-7-7-7-7-7-7--|   Mute after last stum
D--7-7-7-7-7-7-7-7-7--|
A--5-5-5-5-5-5-5-5-5--|
E---------------------|

E--------------------------|
B--------------------------|
G--------7--------7-----5--|   These are the chords for the chorus in order
D--2--5--7--7--2--7--7--5--|   Figure out the strumming for yourself
A--2--5--5--7--2--5--7--3--|   Play Through Twice
E--0--3-----5--0-----5-----|

E------------------|
B------------------|
G--------5-5-------|
D--2-2-2-5-5-5-5-7-|
A--2-2-2-3-3-5-5-7-|
E--0-0-0-----3-3-5-|

E-----------------|
B-----------------|
G--------5-5------|
D--2-2-2-5-5-5-5--|   Mute after Last Strum
A--2-2-2-3-3-5-5--|
E--0-0-0-----3-3--|

E---------------------|
B---------------------|
G---------------------|   3 times, then immediately from there
D--2-0-2/5-7-5h7p5p0--|
A---------------------|
E---------------------|

E--------------------------|
B--5-3---------------------|
G------5-4-2---------------|
D------------5-4-0-2-------|~~~~~    let ring
A--------------------------|
E--------------------------|

E------------------|
B------------------|
G--------5-5-------|
D--2-2-2-5-5-5-5-7-|   2 Times
A--2-2-2-3-3-5-5-7-|
E--0-0-0-----3-3-5-|

E---------------12-12-12-12-12-12~~~~~-|
B--------------------------------------|
G--------------------------------------|  * means natural harmonic
D--------------------------------------|
A---7--7--7--7-------------------------|
E--------------------------------------|
NH  *  *  *  *  *  *  *  *  *  *

E------------------|
B------------------|
G--------5-5-------|
D--2-2-2-5-5-5-5-7-|   2 Times
A--2-2-2-3-3-5-5-7-|
E--0-0-0-----3-3-5-|

E---------------------------------|
B---------------------------------|
G---------------------------------|
D--7-7-x-7-7-7-x-7-7-7-x-7-7-7-5--|
A--7-7-x-7-7-7-x-7-7-7-x-7-7-7-5--|
E--5-5-x-5-5-5-x-5-5-5-x-5-5-5-3--|

E----------------------------------|
B----------------------------------|
G----------------------------------|
D--7-7-x-7-7-7-x-7-7-7-x-7-7-9-10--|
A--7-7-x-7-7-7-x-7-7-7-x-7-7-9-10--|
E--5-5-x-5-5-5-x-5-5-5-x-5-5-7-8---|

E--------------------------|
B--------------------------|
G--------7--------7-----5--|   Chorus once normal
D--2--5--7--7--2--7--7--5--|
A--2--5--5--7--2--5--7--3--|
E--0--3-----5--0-----5-----|

E--------------------|
B--------------------|
G--------7--------7--|  then only up to this chord
D--2--5--7--7--2--7--|
A--2--5--5--7--2--5--|
E--0--3-----5--0-----|

E-----------------------------------|
B-----------------------------------|
G-----------------------------------|
D--7-7-7-7-7-7-7-7-7-7-7-7-7-7-7-7--|
A--7-7-7-7-7-7-7-7-7-7-7-7-7-7-7-7--|
E--5-5-5-5-5-5-5-5-5-5-5-5-5-5-5-5--|
PM . . . . . . . . . . . . . . . .

E-----------------------------------|
B-----------------------------------|
G--5-5-5-5-5-5-5-5-5-5-5-5-5-5-5-5--|
D--5-5-5-5-5-5-5-5-5-5-5-5-5-5-5-5--|
A--3-3-3-3-3-3-3-3-3-3-3-3-3-3-3-3--|
E-----------------------------------|
PM . . . . . . . . . . . . . . . .

E-----------------------------------|
B-----------------------------------|
G--4-4-4-4-4-4-4-4-4-4-4-4-4-4-4-4--|
D--4-4-4-4-4-4-4-4-4-4-4-4-4-4-4-4--|
A--2-2-2-2-2-2-2-2-2-2-2-2-2-2-2-2--|
E-----------------------------------|
PM . . . . . . . . . . . . . . . .

E-----------------------------------|
B-----------------------------------|
G--7-7-7-7-7-7-7-7-7-7-7-7-7-7-7-7--|
D--7-7-7-7-7-7-7-7-7-7-7-7-7-7-7-7--|
A--5-5-5-5-5-5-5-5-5-5-5-5-5-5-5-5--|
E-----------------------------------|
PM . . . . . . . . . . . . . . . .

E--------------------|
B--------------------|
G--5--7-----4--5--7--|
D--5--7--2--4--5--7--|     figure out strumming for yourself
A--3--5--2--2--3--5--|
E--------0-----------|

E---------|
B---------|
G--9~~~~~~      let ring
D--9~~~~~~
A--7~~~~~~
E---------

E--------------------------------------------|
B---------------------7h8-------8------------|
G--9/7-7~~~14/12-14~~~----7h9~~~--7-7--------|   * means natural harmonic
D--x-x-x~~~-x-x--x~~~~----------------7~~~~~-|
A--7/5-5~~~12/10-12~~~-----------------------|
E--------------------------------------------|
NH                                  * *

E-----------------------------------|
B-----------------------------------|
G--9-9-9-9-9-7-9~~~~~~~~~~~~~-------|
D--x-x-x-x-x-x-x~~~~~~~~~~~~~-------|      let ring
A--7-7-7-7-7-5-7~~~~~~~~~~~~~-------|
E-----------------------------------|

"I won't crawl on my knees for you..."

E-------7-----10-----7-----10-----7-----10-----7------|
B---------8------8-----8------8-----8------8-----8----|
G--7h9~~----9------9-----9------9-----9------9-----9--|
D-----------------------------------------------------|
A-----------------------------------------------------|
E-----------------------------------------------------|

E-----------------------------------------------------------------------|
B--7h8p7h8p7h8p7h8---7h8p7h8p7h8p7h8p7h8p7h8p7h8p7h8p7h8p7h8p7h8p7------|
G------------------9-----------------------------------------------7h9--|
D-----------------------------------------------------------------------|
A-----------------------------------------------------------------------|
E-----------------------------------------------------------------------|

E--------------------------|
B--------------------------|
G--------7--------7-----5--|   Chorus once normal, then
D--2--5--7--7--2--7--7--5--|
A--2--5--5--7--2--5--7--3--|
E--0--3-----5--0-----5-----|

E--------------|
B--------------|
G--------7-----|
D--2--5--7--7--|        first half of chorus
A--2--5--5--7--|
E--0--3-----5--|

E--------------------------------------------------|
B--------------------------------------------------|
G----------7-7-7-7---------------------------------|
D--2-2-2-2-7-7-7-7-7-7-7-7---2-0-2/5-7-5h7p5p0--2--|
A--2-2-2-2-5-5-5-5-7-7-7-7----------------------2--|
E--0-0-0-0-5-5-5-5-5-5-5-5----------------------0--|

and that's it.  i would advise looking at these tabs and playing my video on youtube to 
how it's supposed to sound.
Tap to rate this tab
 
# A B C D E F G H I J K L M N O P Q R S T U V W X Y Z