Guitaretab - guitar tabs
Song name
# A B C D E F G H I J K L M N O P Q R S T U V W X Y Z

Rise Against - Long Forgotten Sons tab

Pretty sure this is right.
Not sure what Guitar 1 does in the bridge though :(

Intro
Guitar 1
|------------------------|
|------------------------|
|---9-8~--------9~-------|
|11----------11----------|
|------------------------|
|------------------------|

|------------------------------------------------|
|------------------------------------------------|
|13-13-13-13-16-16-16-16-18-18-18-18-18-18-18-18-|
|------------------------------------------------|
|------------------------------------------------|
|------------------------------------------------|

Guitar 2
|----------------------------------------------------------------|
|----------------------------------------------------------------|
|6666666699999999444444444444444466666666999999994444444444444444
|6666666699999999444444444444444466666666999999994444444444444444
|4444444477777777222222222222222244444444777777772222222222222222
|----------------------------------------------------------------

Guitar 1
|------------------------------------------------|
|------------------------------------------------|
|13-13-13-13-16-16-16-16-18-18-18-18-18-18-18-18-|
|------------------------------------------------|
|------------------------------------------------|
|------------------------------------------------|

Guitar 2
|-------------------------------------------------------------------|
|-------------------------------------------------------------------|
|6666666699999999444444444444444466666666999999994444444411111199999
|66666666999999994444444444444444666666669999999944444444-x-x-xxxxxx-|
|44444444777777772222222222222222444444447777777722222222-9-9-977777-|
|--------------------------------------------------------------------|


verse 1


Guitar 1
|----------------------------------------------------------------|
|----------------------------------------------------------------|
|6~--------------4~--------------4~------2~------6~--------------|
|6~--------------4~--------------4~------2~--6~--6~--------------|
|4~--------------4~--------------2~------0~--6~--4~--------------|
|--------------------------------------------4~------------------|

|------------------------------------------------|
|------------------------------------------------|
|6~--------------4~--------------4~------2~------|
|6~--------------4~--------------4~------2~--6~--|
|4~--------------4~--------------2~------0~--6~--|
|--------------------------------------------4~--|

Guitar 2
|--
|--
|6~
|x-
|4~
|--


Link to chorus
Guitar 1
(this was the clearest way i could tab this part (sorry it's still not very clear))
|------------------------------------------------|
|------------------------------------------------|
|-9--9--9--9--9--9--9--8--8--8--8--8--8--8--8--8-|
|11-11-11-11-11-11-11-11-11-11-11-11-11-11-11-11-|
|------------------------------------------------|
|------------------------------------------------|

|-----------------------------------------|
|-----------------------------------------|
|9-9-9-9-9-9-9-11-11-11-11-11-11-11-11-11-|
|9-9-9-9-9-9-9--9--9--9--9--9--9--9--9--9-|
|-----------------------------------------|
|-----------------------------------------|

Guitar 2
 |--------------------------------|
 |--------------------------------|
 |22222222222222224444444444444444
 |22222222222222224444444444444444
 |00000000000000002222222222222222
 |--------------------------------
pm********************************

Chorus
Guitar 1
|------------------------------------------------|
|------------------------------------------------|
|13-13-13-13-16-16-16-16-18-18-18-18-18-18-18-18-| X4
|------------------------------------------------|
|------------------------------------------------|
|------------------------------------------------|
[ Tab from: http://www.guitaretab.com/r/rise-against/117954.html ]
Guitar 2
|----------------------------------------------------------------|
|----------------------------------------------------------------|
|6666666699999999444444444444444466666666999999994444444444444444
|6666666699999999444444444444444466666666999999994444444444444444 X4
|4444444477777777222222222222222244444444777777772222222222222222
|----------------------------------------------------------------

Link to Verse
Guitar 1
|-------------------------------------|
|-------------------12~---------------|
|6~-------------8-9-----------9--8~---|
|6~----------11-----------------------|
|6~-----------------------------------|
|-------------------------------------|

Verse 2
Guitar 1
(the '8' from the link rings through until the first chord here)
|----------------------------------------------------------------|
|----------------------------------------------------------------|
|----------------4~--------------4~------2~------6~--------------|
|----------------4~--------------4~------2~--6~--6~--------------|
|----------------4~--------------2~------0~--6~--4~--------------|
|--------------------------------------------4~------------------|

|------------------------------------------------|
|------------------------------------------------|
|6~--------------4~--------------4~------2~------|
|6~--------------4~--------------4~------2~--6~--|
|4~--------------4~--------------2~------0~--6~--|
|--------------------------------------------4~--|

Link to Chorus
Guitar 1
|------------------------------------------------|
|------------------------------------------------|
|-9--9--9--9--9--9--9--8--8--8--8--8--8--8--8--8-|
|11-11-11-11-11-11-11-11-11-11-11-11-11-11-11-11-|
|------------------------------------------------|
|------------------------------------------------|

|-----------------------------------------|
|-----------------------------------------|
|9-9-9-9-9-9-9-11-11-11-11-11-11-11-11-11-|
|9-9-9-9-9-9-9--9--9--9--9--9--9--9--9--9-|
|-----------------------------------------|
|-----------------------------------------|

Guitar 2
 |--------------------------------|
 |--------------------------------|
 |22222222222222224444444444444444
 |22222222222222224444444444444444
 |00000000000000002222222222222222
 |--------------------------------
pm********************************

Chorus
Guitar 1
|------------------------------------------------|
|------------------------------------------------|
|13-13-13-13-16-16-16-16-18-18-18-18-18-18-18-18-| X4
|------------------------------------------------|
|------------------------------------------------|
|------------------------------------------------|

Guitar 2
|----------------------------------------------------------------|
|----------------------------------------------------------------|
|6666666699999999444444444444444466666666999999994444444444444444
|6666666699999999444444444444444466666666999999994444444444444444 X4
|4444444477777777222222222222222244444444777777772222222222222222
|----------------------------------------------------------------

Bridge
I'm not really sure what guitar 1 is doing in the bridge
Guitar 2
|--------------------------------|
|--------------------------------|
|22222222222222224444444444444444
|22222222222222224444444444444444 X4
|00000000000000002222222222222222
|--------------------------------

Bass Palm mute part

Guitar 1
|------------------------|
|------------------------|
|---9-8~--------9~-------|
|11----------11----------|
|------------------------|
|------------------------|

Chrous
Guitar 1
|------------------------------------------------|
|------------------------------------------------|
|13-13-13-13-16-16-16-16-18-18-18-18-18-18-18-18-| X4
|------------------------------------------------|
|------------------------------------------------|
|------------------------------------------------|

Guitar 2
|--------------------------------|
|--------------------------------|
|66666666999999994444444444444444
|66666666999999994444444444444444  X4
|44444444777777772222222222222222
|--------------------------------

End
Guitar 1
|---
|---
|-8~
|11~
|---
|---

Guiatr 2
|--
|--
|6~
|6~
|4~
|--
Related for Long Forgotten Sons tab
Advertisement will be closed in 10 seconds