Song name
# A B C D E F G H I J K L M N O P Q R S T U V W X Y Z

Rise Against - Gethsemane tab

RISE AGAINST
GETHSEMANE
THE UNRAVELING

Tuning half step down(Eb, G#, C#, F#, Bb, Eb)

Easy song. Have fun.

Intro

guitar 1
|---|-----------------|-----------------|-----------------|
|---|-----------------|-----------------|-----------------|
|---|-----------------|-----------------|-----------------|
|-o-|-2-2-2-2-2-2-2-2-|-5-5-5-5-4-4-4-4-|-0-0-0-0-0-0-0-0-|
|---|-----------------|-----------------|-----------------|
|---|-----------------|-----------------|-----------------|
|
|guitar 2
|---|-----------------|-----------------|-----------------|
|---|-----------------|-----------------|-----------------|
|---|-----------------|-----------------|-----------------|
|---|-----------------|-----------------|-----------------|
|---|-----------------|-----------------|-----------------|
|---|-----------------|-----------------|-----------------|



|-----------------|-----------------|-----------------|-----------------|
|-----------------|-----------------|-----------------|-----------------|
|-2-2-------------|-----------------|-----------------|-2-2-2-2---------|
|-----5-5-4-4-5-5-|-2-2-2-2-2-2-2-2-|-5-5-5-5-4-4-4-4-|---------0-0-0-0-|
|-----------------|-----------------|-----------------|-----------------|
|-----------------|-----------------|-----------------|-----------------|
|
|
|-----------------|-----------------|-----------------|-----------------|
|-----------------|-----------------|-----------------|-----------------|
|-----------------|-----------------|-----------------|-----------------|
|-----------------|-----------------|-----------------|-----------------|
|-----------------|-----------------|-----------------|-----------------|
|-----------------|-----------------|-----------------|-----------------|



|-----------------|-----------------|-----------------|
|-----------------|-----------------|-----------------|
|-----------------|-----------------|-----------------|
|-2-2-2-2-2-2-2-2-|-5-5-5-5-4-4-4-4-|-0-0-0-0-0-0-0-0-|
|-----------------|-----------------|-----------------|
|-----------------|-----------------|-----------------|
|
|
|-----------------|-----------------|-----------------|
|-----------------|-----------------|-----------------|
|-----------------|-----------------|-----------------|
|-2-2-2-2-2-2-2-2-|-5-5-5-5-4-4-4-4-|-0-0-0-0-0-0-0-0-|
|-----------------|-----------------|-----------------|
|-----------------|-----------------|-----------------|



|-----------------|-----------------|-----------------|-----------------|
|-----------------|-----------------|-----------------|-----------------|
|-2-2-------------|-----------------|-----------------|-2-2-2-2---------|
|-----5-5-4-4-5-5-|-2-2-2-2-2-2-2-2-|-5-5-5-5-4-4-4-4-|---------------0-|
|-----------------|-----------------|-----------------|-----------------|
|-----------------|-----------------|-----------------|-----------------|
|                                                           Gethsemane!
|
|-----------------|-----------------|-----------------|-----------------|
|-----------------|-----------------|-----------------|-----------------|
|-2-2-------------|-----------------|-----------------|-2-2-2-2---------|
|-----5-5-4-4-5-5-|-2-2-2-2-2-2-2-2-|-5-5-5-5-4-4-4-4-|---------------0-|
|-----------------|-----------------|-----------------|-----------------|
|-----------------|-----------------|-----------------|-----------------|



Verse

|-----------------|-----------------|-----------------|
|-----------------|-----------------|-----------------|
|-----------------|-----------------|-----------------|
|-2-2-2-2-2-2-2-2-|-5-5-5-5-4-4-4-4-|-0-0-0-0-0-0-0-0-|
|-----------------|-----------------|-----------------|
|-----------------|-----------------|-----------------|
|
|
|-----------------|-----------------|-----------------|
|-----------------|-----------------|-----------------|
|-----------------|-----------------|-----------------|
|-2-2-2-2-2-2-2-2-|-5-5-5-5-4-4-4-4-|-0-0-0-0-0-0-0-0-|
|-----------------|-----------------|-----------------|
|-----------------|-----------------|-----------------|



|-----------------|-----------------|-----------------|-----------------|
|-----------------|-----------------|-----------------|-----------------|
|-2-2-------------|-----------------|-----------------|-2-2-2-2---------|
|-----5-5-4-4-5-5-|-2-2-2-2-2-2-2-2-|-5-5-5-5-4-4-4-4-|---------0-0-0-0-|
|-----------------|-----------------|-----------------|-----------------|
|-----------------|-----------------|-----------------|-----------------|
|
|
|-----------------|-----------------|-----------------|-----------------|
|-----------------|-----------------|-----------------|-----------------|
|-2-2-------------|-----------------|-----------------|-2-2-2-2---------|
|-----5-5-4-4-5-5-|-2-2-2-2-2-2-2-2-|-5-5-5-5-4-4-4-4-|---------0-0-0-0-|
|-----------------|-----------------|-----------------|-----------------|
|-----------------|-----------------|-----------------|-----------------|



|-----------------|-----------------|-----------------|
|-----------------|-----------------|-----------------|
|-----------------|-----------------|-----------------|
|-2-2-2-2-2-2-2-2-|-5-5-5-5-4-4-4-4-|-0-0-0-0-0-0-0-0-|
|-----------------|-----------------|-----------------|
|-----------------|-----------------|-----------------|
|
|
|-----------------|-----------------|-----------------|
|-----------------|-----------------|-----------------|
|-----------------|-----------------|-----------------|
|-2-2-2-2-2-2-2-2-|-5-5-5-5-4-4-4-4-|-0-0-0-0-0-0-0-0-|
|-----------------|-----------------|-----------------|
|-----------------|-----------------|-----------------|



|-----------------|-----------------|-----------------|-----------------|
|-----------------|-----------------|-----------------|-----------------|
|-2-2-------------|-----------------|-----------------|-2-2-2-2---------|
|-----5-5-4-4-5-5-|-2-2-2-2-2-2-2-2-|-5-5-5-5-4-4-4-4-|---------0-0-0-0-|
|-----------------|-----------------|-----------------|-----------------|
|-----------------|-----------------|-----------------|-----------------|
|
|
|-----------------|-----------------|-----------------|-----------------|
|-----------------|-----------------|-----------------|-----------------|
|-2-2-------------|-----------------|-----------------|-2-2-2-2---------|
|-----5-5-4-4-5-5-|-2-2-2-2-2-2-2-2-|-5-5-5-5-4-4-4-4-|---------0-0-0-0-|
|-----------------|-----------------|-----------------|-----------------|
|-----------------|-----------------|-----------------|-----------------|


Chorus
|-----------------|-----------------|-----------------|
|-----------------|-----------------|-----------------|
|-----------------|-7-7-9-9-9-9-9-9-|-9-9-9-9-9-9-9-9-|
|-7--7-7-x3-3-3-3-|-7-7-9-9-9-9-9-9-|-9-9-9-9-9-9-9-9-|
|-7--7-7-x3-3-3-3-|-5-5-7-7-7-7-7-7-|-7-7-7-7-7-7-7-7-|
|-5--5-5-x1-1-1-1-|-----------------|-----------------|
|
|
|-----------------|-----------------|-----------------|
|-----------------|-----------------|-----------------|
|-----------------|-7-7-9-9-9-9-9-9-|-9-9-9-9-9-9-9-9-|
|-7--7-7-x3-3-3-3-|-7-7-9-9-9-9-9-9-|-9-9-9-9-9-9-9-9-|
|-7--7-7-x3-3-3-3-|-5-5-7-7-7-7-7-7-|-7-7-7-7-7-7-7-7-|
|-5--5-5-x1-1-1-1-|-----------------|-----------------|



|-----------------|-----------------|-----------------|
|-----------------|-----------------|-----------------|
|-----------------|-7-7-9-9-9-9-9-9-|-9-9-9-9-9-9-9-9-|
|-7--7-7-x3-3-3-3-|-7-7-9-9-9-9-9-9-|-9-9-9-9-9-9-9-9-|
|-7--7-7-x3-3-3-3-|-5-5-7-7-7-7-7-7-|-7-7-7-7-7-7-7-7-|
|-5--5-5-x1-1-1-1-|-----------------|-----------------|
|
|
|-----------------|-----------------|-----------------|
|-----------------|-----------------|-----------------|
|-----------------|-7-7-9-9-9-9-9-9-|-9-9-9-9-9-9-9-9-|
|-7--7-7-x3-3-3-3-|-7-7-9-9-9-9-9-9-|-9-9-9-9-9-9-9-9-|
|-7--7-7-x3-3-3-3-|-5-5-7-7-7-7-7-7-|-7-7-7-7-7-7-7-7-|
|-5--5-5-x1-1-1-1-|-----------------|-----------------|



|-----------------|-----------------|-----------------|
|-----------------|-----------------|-----------------|
|-----------------|-7-7-9-9-9-9-9-9-|-9-9-9-9-9-9-9-9-|
|-7--7-7-x3-3-3-3-|-7-7-9-9-9-9-9-9-|-9-9-9-9-9-9-9-9-|
|-7--7-7-x3-3-3-3-|-5-5-7-7-7-7-7-7-|-7-7-7-7-7-7-7-7-|
|-5--5-5-x1-1-1-1-|-----------------|-----------------|
|
|
|-----------------|-----------------|-----------------|
|-----------------|-----------------|-----------------|
|-----------------|-7-7-9-9-9-9-9-9-|-9-9-9-9-9-9-9-9-|
|-7--7-7-x3-3-3-3-|-7-7-9-9-9-9-9-9-|-9-9-9-9-9-9-9-9-|
|-7--7-7-x3-3-3-3-|-5-5-7-7-7-7-7-7-|-7-7-7-7-7-7-7-7-|
|-5--5-5-x1-1-1-1-|-----------------|-----------------|



|-----------------|-----------------|
|-----------------|-----------------|
|-----------------|-----------------|
|-2-------------7-|-9~------------0-|
|-0-----------3-5-|-7~--------------|
|-------------1---|-----------------|
|
|
|-----------------|-----------------|
|-----------------|-----------------|
|-----------------|-----------------|
|-2-------------7-|-9~------------0-|
|-0-----------3-5-|-7~--------------|
|-------------1---|-----------------|



Play Verse

Second Chorus
Play first part of chorus 4 times



Bridge
|------------------|-----------------|
|------------------|-----------------|
|------------------|--------5/7/9--9-|
|-2-2--------x-2-2-|-x-2-2--x-x-x--x-|
|-2-2--------x-2-2-|-x-2-2--3/5/7--7-|
|-0-0--------x-0-0-|-x-0-0-----------|
|
|
|------------------|-----------------|
|------------------|-----------------|
|------------------|--------5/7/9--9-|
|-2-2--------x-2-2-|-x-2-2--x-x-x--x-|
|-2-2--------x-2-2-|-x-2-2--3/5/7--7-|
|-0-0--------x-0-0-|-x-0-0-----------|

play this four times

play second chorus twice

second time, guitar 1 plays intro as octaves

Outro
|-------------|---------|x4
|-------------|---------|
|-------------|---------|
|-2x2x2x2x2x2-|-5-5-5-5-|
|-2x2x2x2x2x2-|-5-5-5-5-|
|-0x0x0x0x0x0-|-3-3-3-3-|
|
|
|-------------|---------|
|-------------|---------|
|-9-9-9-9-9-9-|-7-7-7-7-|
|-xxxxxxxxxxx-|-7-7-7-7-|
|-7x7x7x7x7x7-|-5-5-5-5-|
|--x-x-x-x-x--|---------|

end on

|---|
|---|
|---|
|-2-|
|-2-|
|-0-|
|
|
|---|
|---|
|-9-|
|-9-|
|-7-|
|---|
Tap to rate this tab
# A B C D E F G H I J K L M N O P Q R S T U V W X Y Z