Guitaretab - guitar tabs
Song name
# A B C D E F G H I J K L M N O P Q R S T U V W X Y Z

Rise Against - Art Of Losing tab

Artist : Rise Against
Song : The Art Of Losing
Album : The Unraveling
Tuning : Standard
Tabbed By : Aaron Kunde

x = lightly touch strings with finger tips
/ = slide up/down
. = palm muted

Intro ( both guitars )
|----------------------------------------------------------------------------|
|----------------------------------------------------------------------------|
|--------------------------------7/9-----------------------------------------|
|--------------------------------x/x--------------------------------7--7-7-7-|
|-2------------------------------5/7--------------------------------5--5-5-5-|
|-0--------------------------------------------------------------------------|

Verse ( both guitars )
|--------------------------------------------------------|x2
|--------------------------------------------------------|
|--------------------------------------------------------|
|-9-7-9-10-9-7-9-7-9-10-9-7-9-7-9-10-9-10--12--10--9--10-|
|-7-5-7--8-7-5-7-5-7--8-7-5-7-5-7--8-7--8--10---8--7---8-|
|--------------------------------------------------------|

Chorus ( both guitars )
|------------------------------------------------------------------------
|------------------------------------------------------------------------
|------------------------------------------------------------------------
|-55555555----------4444444444444444--55555555----------444444444444-x-x-
|-33333333-55555555-2222222222222222--33333333-55555555-222222222222-x-x-
|----------33333333----------------------------33333333------------------

-------------------------------------------------------------------------------------------------|
-------------------------------------------------------------------------------------------------|
-------------------------------------------------------------------------------------------------|
--55555555----------4444444444444444--55555555----------4444444444444444-------------------7-7-7-|
--33333333-55555555-2222222222222222--33333333-55555555-2222222222222222-7-5-4-2-----------5-5-5-|
-----------33333333----------------------------33333333------------------5-3-2-0-----------------|
                                                                         . . .
Verse ( both guitars )
|--------------------------------------------------------|x2
|--------------------------------------------------------|
|--------------------------------------------------------|
|-9-7-9-10-9-7-9-7-9-10-9-7-9-7-9-10-9-10--12--10--9--10-|
|-7-5-7--8-7-5-7-5-7--8-7-5-7-5-7--8-7--8--10---8--7---8-|
|--------------------------------------------------------|

Chorus ( both guitars )
|------------------------------------------------------------------------
|------------------------------------------------------------------------
|------------------------------------------------------------------------
|-55555555----------4444444444444444--55555555----------444444444444-x-x-
|-33333333-55555555-2222222222222222--33333333-55555555-222222222222-x-x-
|----------33333333----------------------------33333333------------------
[ Tab from: http://www.guitaretab.com/r/rise-against/138860.html ]
---------------------------------------------------------------------------------------------------|
---------------------------------------------------------------------------------------------------|
---------------------------------------------------------------------------------------------------|
--55555555----------4444444444444444--55555555----------4444444444444444-------------------7-7-7-9-|
--33333333-55555555-2222222222222222--33333333-55555555-2222222222222222-7-5-4-2-----------5-5-5-7-|
-----------33333333----------------------------33333333------------------5-3-2-0-------------------|
                                                                         . . .                   ^let ring out

Outro ( lead )
|--------------------------------------------------------------------|
|--------------------------------------------------------------------|
|--------------------------------------------------------------------|
|-9-9-9-7-------7------4-5-7-5-4-5--9-9-9-7-------7------4-5-7-5---5-|
|-7-7-7-5-5-5-5-5-2-22-2-3-5-3-2-3--7-7-7-5-5-5-5-5-2-22-2-3-5-3-5-3-|
|---------3-3-3---0-00----------------------3-3-3---0-00---------3---|

( rhythm )
|--------------------------------------------------------------------|
|--------------------------------------------------------------------|
|--------------------------------------------------------------------|
|-9------------------------------------------------------------------|
|-7------------------------------2-2---------------------------------|
|--------------------------------0-0---------------------------------|
  ^let ring out                  . ^let ring out

( both guitars )
|--------------------------------------------------------------------|
|--------------------------------------------------------------------|
|--------------------------------------------------------------------|
|-9-9-9-7-------7------4-5-7-5-4-5--9-9-9-7-------7------4-5-7-5---5-|
|-7-7-7-5-5-5-5-5-2-22-2-3-5-3-2-3--7-7-7-5-5-5-5-5-2-22-2-3-5-3-5-3-|
|---------3-3-3---0-00----------------------3-3-3---0-00---------3---|

( both guitars )
|--------------------------------------------------------------------|x2
|--------------------------------------------------------------------|
|--------------------------------------------------------------------|
|-9-9-9-7-------7------4-5-7-5-4-5--9-9-9-7-------7------4-5-7-5---5-|
|-7-7-7-5-5-5-5-5-2-22-2-3-5-3-2-3--7-7-7-5-5-5-5-5-2-22-2-3-5-3-5-3-|
|---------3-3-3---0-00----------------------3-3-3---0-00---------3---|
  . . . . . . . . . .. . . . . . .  . . . . . . . . . .. . . . . . .

( both guitars )
|--------------------------------------------------------------------|x2
|--------------------------------------------------------------------|
|--------------------------------------------------------------------|
|-9-9-9-7-------7------4-5-7-5-4-5--9-9-9-7-------7------4-5-7-5---5-|
|-7-7-7-5-5-5-5-5-2-22-2-3-5-3-2-3--7-7-7-5-5-5-5-5-2-22-2-3-5-3-5-3-|
|---------3-3-3---0-00----------------------3-3-3---0-00---------3---|
                                                                         
Related for Art Of Losing tab
Advertisement will be closed in 10 seconds