Guitaretab - guitar tabs
Song name
# A B C D E F G H I J K L M N O P Q R S T U V W X Y Z

Rise Against - Injection tab

-----------------------------------------------------------------------
			     Injection Ė Rise Against
-----------------------------------------------------------------------
Tabbed by: GRENDLES
Email: magicpie11@hotmail.com

I hope Iím not too far off, Iím kind of new at this.  Awesome song, from an awesome band.
Intro  x2
e|----------------------------------------------------------------| 
B|-12-12-12-11-11-11-11-9-9-9-9-7-7-7-7---------------------------|
G|-11-11-11-10-10-10-10-8-8-8-8-6-6-6-6---------------------------|
D|----------------------------------------------------------------|
A|----------------------------------------------------------------|
E|----------------------------------------------------------------|
Intro (cont.)
e|--------------------------------------------------------------------|
B|-12-12-12-11-11-11-11-9-9-9-9-7-7-7-7-12-12-11-12-14-12-11-9-11-7777|
G|-11-11-11-10-10-10-10-8-8-8-8-6-6-6-6-11-11-10-11-13-11-10-8-10-6666|
D|--------------------------------------------------------------------|
A|--------------------------------------------------------------------|
E|--------------------------------------------------------------------|
Intro (cont.)
e|--------------------------------------------------------------------|
B|7777----------------------------------------------------------------|
G|6666----------------------------------------------------------------|
D|--------------------------------------------------------------------|
A|--------------------------------------------------------------------|
E|--------------------------------------------------------------------|


Verse  x20
e|-------------------------------------------------------------------| 
B|-------------------------------------------------------------------|
G|-------------------------------------------------------------------|
D|-------------14----------------------------------------------------|
A|0-0-12-14-15-------------------------------------------------------|
E|-------------------------------------------------------------------|

Pre-chorus
e|--------------------------------------------------------------------|
B|--------------------------------------------------------------------|
G|--------------------------------------------------------------------|
D|-9-9-9---9-9-9---7-7-7---7-7-7--------------------------------------|
A|-9-9-9---9-9-9---7-7-7---7-7-7--------------------------------------|
E|-7-7-7---7-7-7---5-5-5---5-5-5--------------------------------------|

Chorus x2
e|--------------------------------------------------------------------|
B|-12-12-12-11-11-11-11-9-9-9-9-7-7-7-7-------------------------------|
G|-11-11-11-10-10-10-10-8-8-8-8-6-6-6-6-------------------------------|
D|--------------------------------------------------------------------|
A|--------------------------------------------------------------------|
E|--------------------------------------------------------------------|




Chorus (cont.)
e|--------------------------------------------------------------------|
B|-12-12-12-11-11-11-11-9-9-9-9-7-7-7-7-12-12-11-12-14-12-11-9-11-7777|
G|-11-11-11-10-10-10-10-8-8-8-8-6-6-6-6-11-11-10-11-13-11-10-8-10-6666|
D|--------------------------------------------------------------------|
A|--------------------------------------------------------------------|
E|--------------------------------------------------------------------|

Chorus (cont.)
e|--------------------------------------------------------------------|
B|7777----------------------------------------------------------------|
G|6666----------------------------------------------------------------|
D|--------------------------------------------------------------------|
A|--------------------------------------------------------------------|
E|--------------------------------------------------------------------|

Verse x20
e|--------------------------------------------------------------------|
B|--------------------------------------------------------------------|
G|--------------------------------------------------------------------|
D|--------------14----------------------------------------------------|
A|-0-0-12-14-15-------------------------------------------------------|
E|--------------------------------------------------------------------|

Pre-Chorus
e|--------------------------------------------------------------------|
B|--------------------------------------------------------------------|
G|--------------------------------------------------------------------|
D|-9-9-9---9-9-9---7-7-7---7-7-7--------------------------------------|
A|-9-9-9---9-9-9---7-7-7---7-7-7--------------------------------------|
E|-7-7-7---7-7-7---5-5-5---5-5-5--------------------------------------|
[ Tab from: http://www.guitaretab.com/r/rise-against/144388.html ]
Chorus x2
e|--------------------------------------------------------------------|
B|-12-12-12-11-11-11-11-9-9-9-9-7-7-7-7-------------------------------|
G|-11-11-11-10-10-10-10-8-8-8-8-6-6-6-6-------------------------------|
D|--------------------------------------------------------------------|
A|--------------------------------------------------------------------|
E|--------------------------------------------------------------------|

Chorus (cont.)
e|--------------------------------------------------------------------|
B|-12-12-12-11-11-11-11-9-9-9-9-7-7-7-7-12-12-11-12-14-12-11-9-11-7777|
G|-11-11-11-10-10-10-10-8-8-8-8-6-6-6-6-11-11-10-11-13-11-10-8-10-6666|
D|--------------------------------------------------------------------|
A|--------------------------------------------------------------------|
E|--------------------------------------------------------------------|

Chorus (cont.)
e|--------------------------------------------------------------------|
B|7777----------------------------------------------------------------|
G|6666----------------------------------------------------------------|
D|--------------------------------------------------------------------|
A|--------------------------------------------------------------------|
E|--------------------------------------------------------------------|


Bridge Part 1
e|--------------------------------------------------------------------|
B|--------------------------------------------------------------------|
G|--------------------------------------------------------------------|
D|-7-7--7-7-7--5-5--5-5-5--7-7--7-7-7--5-5--5-5-----------------------|
A|-7-7--7-7-7--5-5--5-5-5--7-7--7-7-7--5-5--5-5-----------------------|
E|-5-5--5-5-5--3-3--3-3-3--5-5--5-5-5--3-3--3-3-----------------------|

Bridge Part 1 (cont.)
e|--------------------------------------------------------------------|
B|--------------------------------------------------------------------|
G|--------------------------------------------------------------------|
D|-7-7--7-7-7--5-5--5-5-5--7-7--7-7-7--5-5--5-5-----------------------|
A|-7-7--7-7-7--5-5--5-5-5--7-7--7-7-7--5-5--5-5-----------------------|
E|-5-5--5-5-5--3-3--3-3-3--5-5--5-5-5--3-3--3-3-----------------------|

Bridge Part 2
e|--------------------------------------------------------------------|
B|--------------------------------------------------------------------|
G|--------------------------------------------------------------------|
D|5-5-5-5-5-5-5-5--7-7-7-7-7-7-7-7--9-9-9-9-9-9-9-9--4-4-4-4-4-4-4-4--|
A|3-3-3-3-3-3-3-3--5-5-5-5-5-5-5-5--7-7-7-7-7-7-7-7--2-2-2-2-2-2-2-2--|
E|--------------------------------------------------------------------|

Bridge Part 2 (cont.)
e|--------------------------------------------------------------------|
B|--------------------------------------------------------------------|
G|--------------------------------------------------------------------|
D|5-5-5-5-5-5-5-5--7-7-7-7-7-7-7-7--9-9-9-9-9-9-9-9--4-4-4-4-4-4-4-4--|
A|3-3-3-3-3-3-3-3--5-5-5-5-5-5-5-5--7-7-7-7-7-7-7-7--2-2-2-2-2-2-2-2--|
E|--------------------------------------------------------------------|

Pre-Chorus
e|--------------------------------------------------------------------|
B|--------------------------------------------------------------------|
G|--------------------------------------------------------------------|
D|-9-9-9---9-9-9---7-7-7---7-7-7--------------------------------------|
A|-9-9-9---9-9-9---7-7-7---7-7-7--------------------------------------|
E|-7-7-7---7-7-7---5-5-5---5-5-5--------------------------------------|

Chorus x2
e|--------------------------------------------------------------------|
B|-12-12-12-11-11-11-11-9-9-9-9-7-7-7-7-------------------------------|
G|-11-11-11-10-10-10-10-8-8-8-8-6-6-6-6-------------------------------|
D|--------------------------------------------------------------------|
A|--------------------------------------------------------------------|
E|--------------------------------------------------------------------|

Chorus (cont.)
e|--------------------------------------------------------------------|
B|-12-12-12-11-11-11-11-9-9-9-9-7-7-7-7-12-12-11-12-14-12-11-9-11-7777|
G|-11-11-11-10-10-10-10-8-8-8-8-6-6-6-6-11-11-10-11-13-11-10-8-10-6666|
D|--------------------------------------------------------------------|
A|--------------------------------------------------------------------|
E|--------------------------------------------------------------------|


Chorus (cont.)
e|--------------------------------------------------------------------|
B|7777----------------------------------------------------------------|
G|6666----------------------------------------------------------------|
D|--------------------------------------------------------------------|
A|--------------------------------------------------------------------|
E|--------------------------------------------------------------------|

Ending x15
e|--------------------------------------------------------------------|
B|--------------------------------------------------------------------|
G|--------------------------------------------------------------------|
D|--------------14----------------------------------------------------|
A|-0-0-12-14-15-------------------------------------------------------|
E|--------------------------------------------------------------------|

End On
e|---|
B|---|
G|---|
D|-6-|
A|-6-|
E|-4-|

| /  slide up
| \  slide down
| h  hammer-on
| p  pull-off
| ~  vibrato
| +  harmonic
| x  Mute note
=======================================================================

Related for Injection tab