Song name
# A B C D E F G H I J K L M N O P Q R S T U V W X Y Z

Rise Against - Survive tab

Rise Against - Survive Intro
tabbed by guitarfreak1337
tunning - drop d standard (from low to high: DGCFAD)

Guitar 1
d|-----------------------|
a|-----------------------|
f|-----------------------|
c|-----------------------|
g|--7----3----5----0-----|
d|--7----3----5----0-----|x2

After playing that 2 times:

Guitar 2

d|---1---3----1---3------|     |---3---|
a|-1---1----1---1---4----|     |---3---|
f|-----------------------|     |---0---|
c|-----------------------|     |-------|< played at the end of last repeat
g|-----------------------|     |-------|
d|-----------------------|x12  |-------|


Guitar 1, joins in again after high part is played 4 times
d|-----------------------------------------|
a|-----------------------------------------|
f|-----------------------------------------|There's some bass notes in the
g|-----------------------------------------|background...
c|-77777777-33333333-55555555-00000000-----|
d|-77777777-33333333-55555555-00000000-----|
 | P  A  L  M    M  U  T  E  D  .  .  .  . |x5
Tap to rate this tab
# A B C D E F G H I J K L M N O P Q R S T U V W X Y Z