Song name
# A B C D E F G H I J K L M N O P Q R S T U V W X Y Z

Rise Against - Entertainment tab

I'm pretty sure this is right. :
Drop D
Guitar 1 is the main guitar that you can hear
Guitar 2 is the other one in the background

*= Palm mute
/= Slide up
\= Slide down
x= mute string

Intro (clean)(Guitar 2)
|----------|-----------|-------------|----|
|----------|-----------|-------------|----|
|----------|-----------|-------------|----|
|--5-4-----|---5-4-----|---5-4-2-----|----|
|2-----5-4-|-2-----5-4-|-5-------5-4-|-2~-|
|----------|-----------|-------------|----|

(distortion) (Guitar 1+2)
|-------------------|--------------------|
|-------------------|--------------------|
|4/12-11---11-11-11-|-11-11-11-11-7--6---|  X2
(|-------------------|-------------------|
|2/10--9----9--9--9-|--9--9--9--9-5--4---|
|-------------------|--------------------|

|--------------------------------------|
|--------------------------------------|
|7/12-11---11-11-11-|-11-11-11-11--7-6-|
|-------------------|------------------|
|5/10--9----9--9--9-|--9--9--9--9--5-4-|
|--------------------------------------|

Verse 1
(guitar 1)
|--
|--
|4~
|--  (let ring for 7 bars) pickslide on 8th bar
|2~
|--

(Guitar 2)
  |----------------------------------------------------------------|
  |----------------------------------------------------------------|
  |----------------------------------------------------------------|
  |----------------------------------------------------------------|
  |2222222222222222222222222222222255555555777777772222222222222222|
  |----------------------------------------------------------------|
pm ****************************************************************

(Guitar 1)
|-----------------------------------------------------------|
|-----------------------------------------------------------|
|4-444444444444-44-44444444444-6-7-7777779-999999-444444----|
|4-444444444444-44-44444444444-6-7-7777779-999999-4444442-4-|
|2-222222222222-22-22222222222-4-5-5555557-777777-2222222-4-|
|-------------------------------------------------------2-4-|
pm ***********  *  **********      ******  ******

(Guitar 2)
|--------------------------------------------------------------|
|--------------------------------------------------------------|
|4-444444444444-44-44444444444-----------------444444444444----|
|4-444444444444-44-44444444444---5-4-2---2-----4444444444442-4-|
|2-222222222222-22-22222222222-2-------5---4-5-2222222222222-4-|
|----------------------------------------------------------2-4-|
pm ***********  *  *********

Chorus (Guitars 1+2)
|-----------------------------------------------------xx--xx--xx--xx--|
|-----------------------------------------------------xx--xx--xx--xx--|
|------------------44444444-------------------2222222-xx4-xx4-xx4-xx4-|
|55555555-22222222-44444444-44444444-55555555-2222222-xx4-xx4-xx4-xx4-|
|55555555-22222222-22222222-44444444-55555555-0000000-xx2-xx2-xx2-xx2-|
|55555555-22222222----------44444444-55555555---------xx--xx--xx--xx--|


|------------------------------------------------------------------------|
|------------------------------------------------------------------------|
|------------------44444444-------------------2~------44444444-----------|
|55555555-22222222-44444444-44444444-55555555-2~------44444444-----------|pickslide
|55555555-22222222-22222222-44444444-55555555-0~------22222222-----------|
|55555555-22222222----------44444444-55555555----------------------------|

Link
(Guitar 1)
|-------------------|--------------------|
|-------------------|--------------------|
|4/12-11---11-11-11-|-11-11-11-11-7--6---|  X2
|-------------------|--------------------|
|2/10--9----9--9--9-|--9--9--9--9-5--4---|
|-------------------|--------------------|

|--------------------------------------|
|--------------------------------------|
|7/12-11---11-11-11-|-11-11-11-11--7-6-|
|-------------------|------------------|
|5/10--9----9--9--9-|--9--9--9--9--5-4-|
|--------------------------------------|

(Guitar 2)
|----------------------------------------------------------------|
|----------------------------------------------------------------|
|4444444444444444444444444444444477777777999999992222222222222222|
|4444444444444444444444444444444477777777999999992222222222222222|
|2222222222222222222222222222222255555555777777772222222222222222|
|----------------------------------------------------------------|

Verse 2
(guitar 1)
|--
|--
|4~
|4~  (let ring for 8 bars)
|2~
|--

(Guitar 2)
|--
|--
|4~
|--   (let ring for 8 bars)
|2~
|--

(Guitar 1)
|-----------------------------------------------------------|
|-----------------------------------------------------------|
|4-444444444444-44-44444444444-6-7-7777779-999999-444444----|
|4-444444444444-44-44444444444-6-7-7777779-999999-4444442-4-|
|2-222222222222-22-22222222222-4-5-5555557-777777-2222222-4-|
|-------------------------------------------------------2-4-|

(Guitar 2 (clean))
|----------|-----------|-----------------|
|----------|-----------|-----------------|
|----------|-----------|-----------------|
|--5-4-----|---5-4-----|---5-4-2---2-----|
|2-----5-4-|-2-----5-4-|-2-------5---4-5-|
|----------|-----------|-----------------|

(distorted)
|----------------|
|----------------|
|444444444444----|
|4444444444442-4-
|2222222222222-4-
|------------2-4-

Chorus (guitars 1+2)
|-----------------------------------------------------xx--xx--xx--xx--|
|-----------------------------------------------------xx--xx--xx--xx--|
|------------------44444444-------------------2222222-xx4-xx4-xx4-xx4-|
|55555555-22222222-44444444-44444444-55555555-2222222-xx4-xx4-xx4-xx4-|
|55555555-22222222-22222222-44444444-55555555-0000000-xx2-xx2-xx2-xx2-|
|55555555-22222222----------44444444-55555555---------xx--xx--xx--xx--|


|-----------------------------------------------|
|-----------------------------------------------|
|------------------44444444-------------------2-|
|55555555-22222222-44444444-44444444-55555555-2-|
|55555555-22222222-22222222-44444444-55555555-0-|
|55555555-22222222----------44444444-55555555---|

Bridge (Guitar 1)
|----------------------------------------------------------------------|
|----------------------------------------------------------------------|
|4-44444442-7-6-4-44444442-7-6-7-9-9-11-11-11-11/12-11--16-16\14-18-17-|
|----------------------------------------------------------------------|
|2-22222220-5-4-2-22222220-5-4-5-7-7--9--9--9--9/10--9--14-14\12-16-15-|
|----------------------------------------------------------------------|

|-------------------------------------------------------------|
|-------------------------------------------------------------|
|4-44444442-7-6-4-44444442-7-6-4-7-4-4-2-2-2-4-7-777777799999-|
|-------------------------------------------------------------|
|2-22222220-5-4-2-22222220-5-4-2-5-2-2-0-0-0-2-5-555555577777-|
|-------------------------------------------------------------|

(Guitar 1+2)
|----------------------------------------------------------|
|----------------------------------------------------------|
|2-22222222222222--------------------------------2~--3~--4-|
|2-222222222222222-222222222222225-555555555555552~--3~--4-|
|0-000000000000002-222222222222225-555555555555550~--1~--2-|
|----------------2-222222222222225-55555555555555----------|
pm **************  **************  **************

Strange 'circusy' part

Link into Chorus (Guitar 2)
**Note: in 3/4 time
|------------------------|
|------------------------|
|4-1616161616161616161616|  (16's)
|4-----------------------|
|2-1414141414141414141414|  (14's)
|------------------------|
 1+ 2 + 3   1 + 2 + 3   1

Chorus (Guitars 1+2)
|-----------------------------------------------------xx--xx--xx--xx--|
|-----------------------------------------------------xx--xx--xx--xx--|
|------------------44444444-------------------2222222-xx4-xx4-xx4-xx4-|
|55555555-22222222-44444444-44444444-55555555-2222222-xx4-xx4-xx4-xx4-|
|55555555-22222222-22222222-44444444-55555555-0000000-xx2-xx2-xx2-xx2-|
|55555555-22222222----------44444444-55555555---------xx--xx--xx--xx--|


|------------------------------------------------------|
|------------------------------------------------------|
|------------------44444444-------------------22222222-|
|55555555-22222222-44444444-44444444-55555555-22222222-|
|55555555-22222222-22222222-44444444-55555555-00000000-|
|55555555-22222222----------44444444-55555555----------|

Outro
(Guitar 1)
|----------------|----------------|
|----------------|----------------|
|4/12-11---111111|11111111-7--6---|  X2
|----------------|----------------|
|2/10--9----9-9-9|-9-9-9-9-5--4---|
|----------------|----------------|

|------------------------------------------------|
|------------------------------------------------|
|7/12-11---111111|11111111--7-6-4444444444444444-|
|----------------|-------------------------------|
|5/10--9----9-9-9|-9-9-9-9--5-4-2222222222222222-|
|------------------------------------------------|

|----------------|----------------|
|----------------|----------------|
|4/12-11---111111|11111111-7--6---|  X2
|----------------|----------------|
|2/10--9----9-9-9|-9-9-9-9-5--4---|
|----------------|----------------|

|---------------------|
|---------------------|
|7/12\11-~--9\7-7\6\4-|
|---------------------|
|5/10\-9~---7\5-5\4\2-|
|---------------------|

(Guitar 2)
|----------------------------------------------------------------|
|----------------------------------------------------------------|
|4444444444444444444444444444444477777777999999992222222222222222|
|4444444444444444444444444444444477777777999999992222222222222222|
|2222222222222222222222222222222255555555777777772222222222222222|
|----------------------------------------------------------------|

|-------------------------------------------|
|-------------------------------------------|
|444444444444444444444444444444447~------9~-|
|444444444444444444444444444444447~------9~-|
|222222222222222222222222222222225~------7~-|
|-------------------------------------------|
Tap to rate this tab
# A B C D E F G H I J K L M N O P Q R S T U V W X Y Z