Song name
# A B C D E F G H I J K L M N O P Q R S T U V W X Y Z

Rise Against - Historia Calamitatum tab

-------------------------------------------------------------------------------
			     Historia Calamitatum - Rise Against
-------------------------------------------------------------------------------
Tabbed by: Chris Allara
Email: Crallara44@gmail.com

Tuning: Eb

Intro:
e|---------------------------------------------------------|
B|---------------------------------------------------------|
G|---11---12---11---12---11---7---9---11---13--------------|
D|----9----9----9----0----0---0---x----x----x--------------|
A|--------------------------------7----9---11--------------|
E|---------------------------------------------------------|
          (Figure Strumming Yourself)
Verse:
e|----------------------------------|
B|----------------------------------|
G|--4-------4-----------------------|
D|--4-------4-------5-------2-------|
A|--2-2222--2-2222--5-------2-------|
E|------------------3-3333--0-0000--|
       (palm mute these)
Pre-Chorus:
e|--------------------       ---------------------------------------|
B|--------------------       ---------------------------------------|
G|--------------------       ---------2-----------------------------|
D|---5-------2--------       -5-------2---(I Think)-----------------|
A|---5-------2--------3x     -5-------0-00000000--------------------|
E|---3-3333--0-0000---       -3-3333--------------------------------|

Chorus:                                    1st:     2nd:
e|---------------------------------------------------------------------------------------|
B|---------------------------------------------------------------------------------------|
G|--4----7---------7----7----4----7---------7--------------------------------------------|
D|--4----7----5----7----7----4----7----5----7----------7---------------------------------|
A|--2----5----5----5----4----2----5----5----5----------7---------------------------------|
E|------------3------------------------3---------------5---------------------------------|

Bridge: Guitar 1:
e|-----------------------------|
B|---10--0--7--0--10--------7--|
G|--------------------7--9-----|
D|-----------------------------|
A|-----------------------------|
E|-----------------------------|

Guitar 2:
e|----------------------------------|
B|----------------------------------|
G|----------------------4--7--------|
D|--3--2----------------4--7--2--2--|
A|--3--2----------------2--5--2--2--|
E|--5--0----------------------0--0--|


Enjoy!


| /  slide up
| \  slide down
| h  hammer-on
| p  pull-off
| ~  vibrato
| +  harmonic
| x  Mute note
===============================================================================
Tap to rate this tab
# A B C D E F G H I J K L M N O P Q R S T U V W X Y Z