Song name
# A B C D E F G H I J K L M N O P Q R S T U V W X Y Z

Rise Against - Kotov Syndrome tab

Help us improve GuitareTab! Take a short survey!
-------------------------------------------------------------------------------
			     Kotov Syndrome - Rise Against
-------------------------------------------------------------------------------
Tabbed by: lars83

Tuning: Eb Ab Db Gb Bb eb

*Drum Intro*

Intro:

Guitar 1
eb|-------------------------------------------|
Bb|-------------------------------------------|
Gb|--11---11-11---11-11---14---14-14---14-14--|
Db|--x----x--x----x--x----x----x--x----x--x---|
Ab|--9----9--9----9--9----12---12-12---12-12--|
Eb|-------------------------------------------|
                                              |
Guitar 2                                      |
eb|-------------------------------------------|
Bb|-------------------------------------------|
Gb|-----------------------7----7--7----7--7---|
Db|--4----4--4----4--4----7----7--7----7--7---|
Ab|--4----4--4----4--4----5----5--5----5--5---|
Eb|--2----2--2----2--2------------------------|


eb|-------------------------------------------|
Bb|-------------------------------------------|
Gb|--13----9----9--9----13---14-----------13--|
Db|--x-----x----x--x----x----x------------x---|
Ab|--11----7----7--7----11---12-----------11--|
Eb|-------------------------------------------|
                                              |
                                              |
eb|-------------------------------------------|
Bb|-------------------------------------------|
Gb|-------------------------------------------|
Db|--2----2--2----2--2----2----2--2----2--2---|
Ab|--2----2--2----2--2----2----2--2----2--2---|
Eb|--0----0--0----0--0----0----0--0----0--0---|


eb|-------------------------------------------|
Bb|-------------------------------------------|
Gb|--11---11-11---11-11---14---14-14---14-14--|
Db|--x----x--x----x--x----x----x--x----x--x---|
Ab|--9----9--9----9--9----12---12-12---12-12--|
Eb|-------------------------------------------|
                                              |
                                              |
eb|-------------------------------------------|
Bb|-------------------------------------------|
Gb|-----------------------7----7--7----7--7---|
Db|--4----4--4----4--4----7----7--7----7--7---|
Ab|--4----4--4----4--4----5----5--5----5--5---|
Eb|--2----2--2----2--2------------------------|


eb|-------------------------------------------|
Bb|-------------------------------------------|
Gb|--13---13-13---13-13---13---13-13---13-13--|
Db|--x----x--x----x--x----x----x--x----x--x---|
Ab|--11---11-11---11-11---11---11-11---11-11--|
Eb|-------------------------------------------|
                                              |
                                              |
eb|-------------------------------------------|
Bb|-------------------------------------------|
Gb|-------------------------------------------|
Db|--2----2--2----2--2----2----2--2----2--2---|
Ab|--2----2--2----2--2----2----2--2----2--2---|
Eb|--0----0--0----0--0----0----0--0----0--0---|


eb|-------------------------------------------|
Bb|-------------------------------------------|
Gb|--11---11-11---11-11---14---14-14---14-14--|
Db|--x----x--x----x--x----x----x--x----x--x---|
Ab|--9----9--9----9--9----12---12-12---12-12--|
Eb|-------------------------------------------|
                                              |
                                              |
eb|-------------------------------------------|
Bb|-------------------------------------------|
Gb|-----------------------7----7--7----7--7---|
Db|--4----4--4----4--4----7----7--7----7--7---|
Ab|--4----4--4----4--4----5----5--5----5--5---|
Eb|--2----2--2----2--2------------------------|


eb|------------------------------|
Bb|------------------------------|
Gb|--16---14---13-14---13---11---|
Db|--x----x----x--x----x----x----|
Ab|--14---12---11-12---11---9----|
Eb|------------------------------|
                                 ||||||||||||||
                                              |
eb|-------------------------------------------|
Bb|-------------------------------------------|
Gb|-------------------------------------------|
Db|--7----7--7----7--7----9----9--9----9--9---|
Ab|--7----7--7----7--7----9----9--9----9--9---|
Eb|--5----5--5----5--5----7----7--7----7--7---|


eb|-------------------------------------------|
Bb|-------------------------------------------|
Gb|--11---11-11---11-11---14---14-14---14-14--|
Db|--x----x--x----x--x----x----x--x----x--x---|
Ab|--9----9--9----9--9----12---12-12---12-12--|
Eb|-------------------------------------------|
                                              |
                                              |
eb|-------------------------------------------|
Bb|-------------------------------------------|
Gb|-----------------------7----7--7----7--7---|
Db|--4----4--4----4--4----7----7--7----7--7---|
Ab|--4----4--4----4--4----5----5--5----5--5---|
Eb|--2----2--2----2--2------------------------|


eb|-------------------------------------------|
Bb|-------------------------------------------|
Gb|--13---13-13---13-13---13---13-13---13-13--|
Db|--x----x--x----x--x----x----x--x----x--x---|
Ab|--11---11-11---11-11---11---11-11---11-11--|
Eb|-------------------------------------------|
                                              |
                                              |
eb|-------------------------------------------|
Bb|-------------------------------------------|
Gb|-------------------------------------------|
Db|--2----2--2----2--2----2----2--2----2--2---|
Ab|--2----2--2----2--2----2----2--2----2--2---|
Eb|--0----0--0----0--0----0----0--0----0--0---|


Verse 1:

Guitar 1
eb|-------------------------------------------|
Bb|-------------------------------------------|
Gb|-/11------------------------------14--\13--|
Db|-------11~---------------------------------|
Ab|-------------------------------------------|
Eb|-------------------------------------------|
                                              |
Guitar 2                                      |
eb|-------------------------------------------|
Bb|-------------------------------------------|
Gb|-------------------------------------------|
Db|--4~~~-------------------------------------|
Ab|--4~~~-------------------------------------|
Eb|--2~~~-------------------------------------|


eb|-------------------------------------------|
Bb|-------------------------------------------|
Gb|--9~~~-------------------------------------|
Db|-------------------------------------------|
Ab|-------------------------------------------|
Eb|-------------------------------------------|
                                              |
                                              |
eb|-------------------------------------------|
Bb|-------------------------------------------|
Gb|-------------------------------------------|
Db|-------------------------------------------|
Ab|-------------------------------------------|
Eb|-------------------------------------------|


eb|-------------------------------------------|
Bb|-------------------------------------------|
Gb|-/11-----------------------------------/9--|
Db|-------11~---------------------------------|
Ab|-------------------------------------------|
Eb|-------------------------------------------|
                                              |
                                              |
eb|-------------------------------------------|
Bb|-------------------------------------------|
Gb|-------------------------------------------|
Db|-------------------------------------------|
Ab|-------------------------------------------|
Eb|-------------------------------------------|


eb|-------------------------------------------|
Bb|-------------------------------------------|
Gb|--9~~--------------------------------------|
Db|-------------------------------------------|
Ab|---------------------------------//////////|
Eb|---------------------------------//////////|
                                              |
                                              |
eb|-------------------------------------------|
Bb|-------------------------------------------|
Gb|-------------------------------------------|
Db|-------------------------------------------|
Ab|---------------------------------//////////|
Eb|---------------------------------//////////|


eb|----------------------12-------------------|
Bb|------------14-------------14--------------|
Gb|--9---/11--------14-------------14---------|
Db|-------------------------------------------|
Ab|-------------------------------------------|
Eb|-------------------------------------------|
                                              |
                                              |
eb|-------------------------------------------|
Bb|-------------------------------------------|
Gb|--7----7--7----7--7----7----7--7----7--7---|
Db|--7----7--7----7--7----7----7--7----7--7---|
Ab|--5----5--5----5--5----5----5--5----5--5---|
Eb|-------------------------------------------|


eb|-------------------------------------------|
Bb|------------12--------14-------------------|
Gb|--9---/11--------14--------14--------------|
Db|--------------------------------16---------|
Ab|-------------------------------------------|
Eb|-------------------------------------------|
                                              |
                                              |
eb|-------------------------------------------|
Bb|-------------------------------------------|
Gb|--9----9--9----9--9----9----9--9----9--9---|
Db|--9----9--9----9--9----9----9--9----9--9---|
Ab|--7----7--7----7--7----7----7--7----7--7---|
Eb|-------------------------------------------|


eb|----------------------12-------------------|
Bb|------------12-------------14--------------|
Gb|--9---/11--------14-------------14---------|
Db|-------------------------------------------|
Ab|-------------------------------------------|
Eb|-------------------------------------------|
                                              |
                                              |
eb|-------------------------------------------|
Bb|-------------------------------------------|
Gb|--7----7--7----7--7----7----7--7----7--7---|
Db|--7----7--7----7--7----7----7--7----7--7---|
Ab|--5----5--5----5--5----5----5--5----5--5---|
Eb|-------------------------------------------|


eb|-------------------------------------------|
Bb|-------------------------------------------|
Gb|-------------------------------------------|
Db|-------------------------------------------|
Ab|-------------------------------------------|
Eb|-------------------------------------------|
                                              |
                                              |
P.M. .  .  .  .  .  .  .  .                   |
eb|-------------------------------------------|
Bb|-------------------------------------------|
Gb|-------------------------------------------|
Db|--------------------------7--------9-------|
Ab|--2--2--2--2--2--2--2--2--7--------9-------|
Eb|--0--0--0--0--0--0--0--0--5--------7-------|


Verse 2:

Guitar 1
eb|-------------------------------------------|
Bb|-------------------------------------------|
Gb|-/11------------------------------14--\13--|
Db|-------11~---------------------------------|
Ab|-------------------------------------------|
Eb|-------------------------------------------|
                                              |
Guitar 2                                      |
P.M. .    .  .    .  .    .    .  .    .  .   |
eb|-------------------------------------------|
Bb|-------------------------------------------|
Gb|-------------------------------------------|
Db|-------------------------------------------|
Ab|--4----4--4----4--4----4----4--4----4--4---|
Eb|--2----2--2----2--2----2----2--2----2--2---|


eb|-------------------------------------------|
Bb|-------------------------------------------|
Gb|--9~~--------------------------------------|
Db|-------------------------------------------|
Ab|---------------------------------//////////|
Eb|---------------------------------//////////|
                                              |
     .    .  .    .  .    .    .  .    .  .   |
eb|-------------------------------------------|
Bb|-------------------------------------------|
Gb|-------------------------------------------|
Db|-------------------------------------------|
Ab|--2----2--2----2--2----2----2--2----2--2---|
Eb|--0----0--0----0--0----0----0--0----0--0---|


eb|----------------------12-------------------|
Bb|------------14-------------14--------------|
Gb|--9---/11--------14-------------14---------|
Db|-------------------------------------------|
Ab|-------------------------------------------|
Eb|-------------------------------------------|
                                              |
                                              |
eb|-------------------------------------------|
Bb|-------------------------------------------|
Gb|--7----7--7----7--7----7----7--7----7--7---|
Db|--7----7--7----7--7----7----7--7----7--7---|
Ab|--5----5--5----5--5----5----5--5----5--5---|
Eb|-------------------------------------------|


eb|-------------------------------------------|
Bb|------------12--------14-------------------|
Gb|--9---/11--------14--------14--------------|
Db|--------------------------------16---------|
Ab|-------------------------------------------|
Eb|-------------------------------------------|
                                              |
                                              |
eb|-------------------------------------------|
Bb|-------------------------------------------|
Gb|--9----9--9----9--9----9----9--9----9--9---|
Db|--9----9--9----9--9----9----9--9----9--9---|
Ab|--7----7--7----7--7----7----7--7----7--7---|
Eb|-------------------------------------------|


eb|----------------------12-------------------|
Bb|------------12-------------14--------------|
Gb|--9---/11--------14-------------14---------|
Db|-------------------------------------------|
Ab|-------------------------------------------|
Eb|-------------------------------------------|
                                              |
                                              |
eb|-------------------------------------------|
Bb|-------------------------------------------|
Gb|--7----7--7----7--7----7----7--7----7--7---|
Db|--7----7--7----7--7----7----7--7----7--7---|
Ab|--5----5--5----5--5----5----5--5----5--5---|
Eb|-------------------------------------------|


eb|-------------------------------------------|
Bb|-------------------------------------------|
Gb|-------------------------------------------|
Db|-------------------------------------------|
Ab|---------//////////////////////////////////|
Eb|---------//////////////////////////////////|
                                              |
                                              |
P.M. .  .  .  .  .  .  .  .                   |
eb|-------------------------------------------|
Bb|-------------------------------------------|
Gb|-------------------------------------------|
Db|--------------------------7--------2-------|
Ab|--2--2--2--2--2--2--2--2--7--------2-------|
Eb|--0--0--0--0--0--0--0--0--5--------0-------|


Chorus:

Guitar 1
eb|-------------------------------------------|
Bb|-------------------------------------------|
Gb|--11---11-11---11-11---14---14-14---14-14--|
Db|--x----x--x----x--x----x----x--x----x--x---|
Ab|--9----9--9----9--9----12---12-12---12-12--|
Eb|-------------------------------------------|
                                              |
Guitar 2                                      |
eb|-------------------------------------------|
Bb|-------------------------------------------|
Gb|-----------------------7----7--7----7--7---|
Db|--4----4--4----4--4----7----7--7----7--7---|
Ab|--4----4--4----4--4----5----5--5----5--5---|
Eb|--2----2--2----2--2------------------------|


eb|-------------------------------------------|
Bb|-------------------------------------------|
Gb|--13---9----9--9----13----14-----------13--|
Db|--x----x----x--x----x-----x------------x---|
Ab|--11---7----7--7----11----12-----------11--|
Eb|-------------------------------------------|
                                              |
                                              |
eb|-------------------------------------------|
Bb|-------------------------------------------|
Gb|-------------------------------------------|
Db|--2----2--2----2--2----2----2--2----2--2---|
Ab|--2----2--2----2--2----2----2--2----2--2---|
Eb|--0----0--0----0--0----0----0--0----0--0---|


eb|-------------------------------------------|
Bb|-------------------------------------------|
Gb|--11---11-11---11-11---14---14-14---14-14--|
Db|--x----x--x----x--x----x----x--x----x--x---|
Ab|--9----9--9----9--9----12---12-12---12-12--|
Eb|-------------------------------------------|
                                              |
                                              |
eb|-------------------------------------------|
Bb|-------------------------------------------|
Gb|-----------------------7----7--7----7--7---|
Db|--4----4--4----4--4----7----7--7----7--7---|
Ab|--4----4--4----4--4----5----5--5----5--5---|
Eb|--2----2--2----2--2------------------------|


eb|-------------------------------------------|
Bb|-------------------------------------------|
Gb|--13---13-13---13-13---13---13---13---13---|
Db|--x----x--x----x--x----x----x----x----x----|
Ab|--11---11-11---11-11---11---11---11---11---|
Eb|-------------------------------------------|
                                              |
                                              |
eb|-------------------------------------------|
Bb|-------------------------------------------|
Gb|-------------------------------------------|
Db|--2----2--2----2--2----2----2--2----2--2---|
Ab|--2----2--2----2--2----2----2--2----2--2---|
Eb|--0----0--0----0--0----0----0--0----0--0---|


eb|-------------------------------------------|
Bb|-------------------------------------------|
Gb|--11---11-11---11-11---14---14-14---14-14--|
Db|--x----x--x----x--x----x----x--x----x--x---|
Ab|--9----9--9----9--9----12---12-12---12-12--|
Eb|-------------------------------------------|
                                              |
                                              |
eb|-------------------------------------------|
Bb|-------------------------------------------|
Gb|-----------------------7----7--7----7--7---|
Db|--4----4--4----4--4----7----7--7----7--7---|
Ab|--4----4--4----4--4----5----5--5----5--5---|
Eb|--2----2--2----2--2------------------------|


eb|------------------------------|
Bb|------------------------------|
Gb|--16---14---13-14---13---11---|
Db|--x----x----x--x----x----x----|
Ab|--14---12---11-12---11---9----|
Eb|------------------------------||||||||||||||
                                              |
eb|-------------------------------------------|
Bb|-------------------------------------------|
Gb|-------------------------------------------|
Db|--7----7--7----7--7----9----9--9----9--9---|
Ab|--7----7--7----7--7----9----9--9----9--9---|
Eb|--5----5--5----5--5----7----7--7----7--7---|


eb|-------------------------------------------|
Bb|-------------------------------------------|
Gb|--11~------------14~-----------------------|
Db|--x--------------x-------------------------|
Ab|--9~-------------12~-----------------------|
Eb|-------------------------------------------|
                                              |
                                              |
eb|-------------------------------------------|
Bb|-------------------------------------------|
Gb|-----------------7~------------------------|
Db|--4~-------------7~------------------------|
Ab|--4~-------------5~------------------------|
Eb|--2~---------------------------------------|


eb|-------------------------------------------|
Bb|-------------------------------------------|
Gb|--13~~-------------------------------------|
Db|--x----------------------------------------|
Ab|--11~~-------------------------------------|
Eb|-------------------------------------------|
                                              |
                                              |
eb|-------------------------------------------|
Bb|-------------------------------------------|
Gb|-------------------------------------------|
Db|--2~~~-------------------------------------|
Ab|--2~~~-------------------//////////////////|
Eb|--0~~~-------------------//////////////////|


Post Chorus:

Repeat 3x for both guitars:

Guitar 1
      full full full full
        ^    ^    ^    ^
        |    |    |    |
eb|-----|----|----|----|-----|
Bb|--19-|-19-|-19-|-19-|-----|
Gb|--21b/-21b/-21b/-21b/-----|
Db|--------------------------|
Ab|--------------------------|
Eb|--------------------------||||||||||||||||||
                                              |
Guitar 2                                      |
eb|-------------------------------------------|
Bb|-------------------------------------------|
Gb|-------------------------------------------|
Db|--4----4--4----4--4----4----4----6----7----|
Ab|--4----4--4----4--4----4----4----6----7----|
Eb|--2----2--2----2--2----2----2----4----5----|

Guitar 2 only
eb|-------------------------------------------|
Bb|-------------------------------------------|
Gb|--------------------------------4----------|
Db|--7---------2---------7---------4----------|
Ab|--7---------2---------7---------2----------|
Eb|--5---------0---------5--------------------|


Verse 3:

Guitar 1
eb|-------------------------------------------|
Bb|-------------------------------------------|
Gb|-/11------------------------------14--\13--|
Db|-------11~-------------------14------------|
Ab|-------------------------------------------|
Eb|-------------------------------------------|
                                              |
Guitar 2                                      |
eb|-------------------------------------------|
Bb|-------------------------------------------|
Gb|-------------------------------------------|
Db|--4~~~-------------------------------------|
Ab|--4~~~-------------------------------------|
Eb|--2~~~-------------------------------------|


eb|-------------------------------------------|
Bb|-------------------------------------------|
Gb|--9~~~-------------------------------------|
Db|-------------------------------------------|
Ab|-------------------------------------------|
Eb|-------------------------------------------|
                                              |
                                              |
eb|-------------------------------------------|
Bb|-------------------------------------------|
Gb|-------------------------------------------|
Db|-------------------------------------------|
Ab|-------------------------------------------|
Eb|-------------------------------------------|


eb|-------------------------------------------|
Bb|-------------------------------------------|
Gb|-/11-----------------------------------/9--|
Db|-------11~---------------------------------|
Ab|-------------------------------------------|
Eb|-------------------------------------------|
                                              |
                                              |
eb|-------------------------------------------|
Bb|-------------------------------------------|
Gb|-------------------------------------------|
Db|-------------------------------------------|
Ab|-------------------------------------------|
Eb|-------------------------------------------|


eb|-------------------------------------------|
Bb|-------------------------------------------|
Gb|--9~~--------------------------------------|
Db|-------------------------------------------|
Ab|---------------------------------//////////|
Eb|---------------------------------//////////|
                                              |
                                              |
eb|-------------------------------------------|
Bb|-------------------------------------------|
Gb|-------------------------------------------|
Db|-------------------------------------------|
Ab|---------------------------------//////////|
Eb|---------------------------------//////////|


eb|----------------------12-------------------|
Bb|------------14-------------14--------------|
Gb|--9---/11--------14-------------14---------|
Db|-------------------------------------------|
Ab|-------------------------------------------|
Eb|-------------------------------------------|
                                              |
                                              |
eb|-------------------------------------------|
Bb|-------------------------------------------|
Gb|--7----7--7----7--7----7----7--7----7--7---|
Db|--7----7--7----7--7----7----7--7----7--7---|
Ab|--5----5--5----5--5----5----5--5----5--5---|
Eb|-------------------------------------------|


eb|-------------------------------------------|
Bb|------------12--------14-------------------|
Gb|--9---/11--------14--------14--------------|
Db|--------------------------------16---------|
Ab|-------------------------------------------|
Eb|-------------------------------------------|
                                              |
                                              |
eb|-------------------------------------------|
Bb|-------------------------------------------|
Gb|--9----9--9----9--9----9----9--9----9--9---|
Db|--9----9--9----9--9----9----9--9----9--9---|
Ab|--7----7--7----7--7----7----7--7----7--7---|
Eb|-------------------------------------------|


eb|----------------------12-------------------|
Bb|------------12-------------14--------------|
Gb|--9---/11--------14-------------14---------|
Db|-------------------------------------------|
Ab|-------------------------------------------|
Eb|-------------------------------------------|
                                              |
                                              |
eb|-------------------------------------------|
Bb|-------------------------------------------|
Gb|--7----7--7----7--7----7----7--7----7--7---|
Db|--7----7--7----7--7----7----7--7----7--7---|
Ab|--5----5--5----5--5----5----5--5----5--5---|
Eb|-------------------------------------------|


eb|-------------------------------------------|
Bb|-------------------------------------------|
Gb|-------------------------------------------|
Db|-------------------------------------------|
Ab|-------------------------------------------|
Eb|-------------------------------------------|
                                              |
                                              |
P.M. .  .  .  .  .  .  .  .                   |
eb|-------------------------------------------|
Bb|-------------------------------------------|
Gb|-------------------------------------------|
Db|--------------------------7--------9-------|
Ab|--2--2--2--2--2--2--2--2--7--------9-------|
Eb|--0--0--0--0--0--0--0--0--5--------7-------|


Verse 4:

Guitar 1
eb|-------------------------------------------|
Bb|-------------------------------------------|
Gb|-/11------------------------------14--\13--|
Db|-------11~-------------------14------------|
Ab|-------------------------------------------|
Eb|-------------------------------------------|
                                              |
Guitar 2                                      |
P.M. .    .  .    .  .    .    .  .    .  .   |
eb|-------------------------------------------|
Bb|-------------------------------------------|
Gb|-------------------------------------------|
Db|-------------------------------------------|
Ab|--4----4--4----4--4----4----4--4----4--4---|
Eb|--2----2--2----2--2----2----2--2----2--2---|


eb|-------------------------------------------|
Bb|-------------------------------------------|
Gb|--9~~--------------------------------------|
Db|-------------------------------------------|
Ab|---------------------------------//////////|
Eb|---------------------------------//////////|
                                              |
     .    .  .    .  .    .    .  .    .  .   |
eb|-------------------------------------------|
Bb|-------------------------------------------|
Gb|-------------------------------------------|
Db|-------------------------------------------|
Ab|--2----2--2----2--2----2----2--2----2--2---|
Eb|--0----0--0----0--0----0----0--0----0--0---|


eb|----------------------12-------------------|
Bb|------------14-------------14--------------|
Gb|--9---/11--------14-------------14---------|
Db|-------------------------------------------|
Ab|-------------------------------------------|
Eb|-------------------------------------------|
                                              |
                                              |
eb|-------------------------------------------|
Bb|-------------------------------------------|
Gb|--7----7--7----7--7----7----7--7----7--7---|
Db|--7----7--7----7--7----7----7--7----7--7---|
Ab|--5----5--5----5--5----5----5--5----5--5---|
Eb|-------------------------------------------|


eb|-------------------------------------------|
Bb|------------12--------14-------------------|
Gb|--9---/11--------14--------14--------------|
Db|--------------------------------16---------|
Ab|-------------------------------------------|
Eb|-------------------------------------------|
                                              |
                                              |
eb|-------------------------------------------|
Bb|-------------------------------------------|
Gb|--9----9--9----9--9----9----9--9----9--9---|
Db|--9----9--9----9--9----9----9--9----9--9---|
Ab|--7----7--7----7--7----7----7--7----7--7---|
Eb|-------------------------------------------|


eb|----------------------12-------------------|
Bb|------------12-------------14--------------|
Gb|--9---/11--------14-------------14---------|
Db|-------------------------------------------|
Ab|-------------------------------------------|
Eb|-------------------------------------------|
                                              |
                                              |
eb|-------------------------------------------|
Bb|-------------------------------------------|
Gb|--7----7--7----7--7----7----7--7----7--7---|
Db|--7----7--7----7--7----7----7--7----7--7---|
Ab|--5----5--5----5--5----5----5--5----5--5---|
Eb|-------------------------------------------|


eb|-------------------------------------------|
Bb|-------------------------------------------|
Gb|-------------------------------------------|
Db|-------------------------------------------|
Ab|---------//////////////////////////////////|
Eb|---------//////////////////////////////////|
                                              |
                                              |
P.M. .  .  .  .  .  .  .  .                   |
eb|-------------------------------------------|
Bb|-------------------------------------------|
Gb|-------------------------------------------|
Db|--------------------------7--------2-------|
Ab|--2--2--2--2--2--2--2--2--7--------2-------|
Eb|--0--0--0--0--0--0--0--0--5--------0-------|


Chorus:

Guitar 1
eb|-------------------------------------------|
Bb|-------------------------------------------|
Gb|--11---11-11---11-11---14---14-14---14-14--|
Db|--x----x--x----x--x----x----x--x----x--x---|
Ab|--9----9--9----9--9----12---12-12---12-12--|
Eb|-------------------------------------------|
                                              |
Guitar 2                                      |
eb|-------------------------------------------|
Bb|-------------------------------------------|
Gb|-----------------------7----7--7----7--7---|
Db|--4----4--4----4--4----7----7--7----7--7---|
Ab|--4----4--4----4--4----5----5--5----5--5---|
Eb|--2----2--2----2--2------------------------|


eb|-------------------------------------------|
Bb|-------------------------------------------|
Gb|--13---9----9--9----13----14-----------13--|
Db|--x----x----x--x----x-----x------------x---|
Ab|--11---7----7--7----11----12-----------11--|
Eb|-------------------------------------------|
                                              |
                                              |
eb|-------------------------------------------|
Bb|-------------------------------------------|
Gb|-------------------------------------------|
Db|--2----2--2----2--2----2----2--2----2--2---|
Ab|--2----2--2----2--2----2----2--2----2--2---|
Eb|--0----0--0----0--0----0----0--0----0--0---|


eb|-------------------------------------------|
Bb|-------------------------------------------|
Gb|--11---11-11---11-11---14---14-14---14-14--|
Db|--x----x--x----x--x----x----x--x----x--x---|
Ab|--9----9--9----9--9----12---12-12---12-12--|
Eb|-------------------------------------------|
                                              |
                                              |
eb|-------------------------------------------|
Bb|-------------------------------------------|
Gb|-----------------------7----7--7----7--7---|
Db|--4----4--4----4--4----7----7--7----7--7---|
Ab|--4----4--4----4--4----5----5--5----5--5---|
Eb|--2----2--2----2--2------------------------|


eb|-------------------------------------------|
Bb|-------------------------------------------|
Gb|--13---13-13---13-13---13---13---13---13---|
Db|--x----x--x----x--x----x----x----x----x----|
Ab|--11---11-11---11-11---11---11---11---11---|
Eb|-------------------------------------------|
                                              |
                                              |
eb|-------------------------------------------|
Bb|-------------------------------------------|
Gb|-------------------------------------------|
Db|--2----2--2----2--2----2----2--2----2--2---|
Ab|--2----2--2----2--2----2----2--2----2--2---|
Eb|--0----0--0----0--0----0----0--0----0--0---|


eb|-------------------------------------------|
Bb|-------------------------------------------|
Gb|--11---11-11---11-11---14---14-14---14-14--|
Db|--x----x--x----x--x----x----x--x----x--x---|
Ab|--9----9--9----9--9----12---12-12---12-12--|
Eb|-------------------------------------------|
                                              |
                                              |
eb|-------------------------------------------|
Bb|-------------------------------------------|
Gb|-----------------------7----7--7----7--7---|
Db|--4----4--4----4--4----7----7--7----7--7---|
Ab|--4----4--4----4--4----5----5--5----5--5---|
Eb|--2----2--2----2--2------------------------|


eb|------------------------------|
Bb|------------------------------|
Gb|--16---14---13-14---13---11---|
Db|--x----x----x--x----x----x----|
Ab|--14---12---11-12---11---9----|
Eb|------------------------------||||||||||||||
                                              |
eb|-------------------------------------------|
Bb|-------------------------------------------|
Gb|-------------------------------------------|
Db|--7----7--7----7--7----9----9--9----9--9---|
Ab|--7----7--7----7--7----9----9--9----9--9---|
Eb|--5----5--5----5--5----7----7--7----7--7---|


eb|-------------------------------------------|
Bb|-------------------------------------------|
Gb|--11~------------14~-----------------------|
Db|--x--------------x-------------------------|
Ab|--9~-------------12~-----------------------|
Eb|-------------------------------------------|
                                              |
                                              |
eb|-------------------------------------------|
Bb|-------------------------------------------|
Gb|-----------------7~------------------------|
Db|--4~-------------7~------------------------|
Ab|--4~-------------5~------------------------|
Eb|--2~---------------------------------------|


eb|-------------------------------------------|
Bb|-------------------------------------------|
Gb|--13~~-------------------------------------|
Db|--x----------------------------------------|
Ab|--11~~-------------------------------------|
Eb|-------------------------------------------|
                                              |
                                              |
eb|-------------------------------------------|
Bb|-------------------------------------------|
Gb|-------------------------------------------|
Db|--2~~~-------------------------------------|
Ab|--2~~~-------------------//////////////////|
Eb|--0~~~-------------------//////////////////|


Post Chorus:

Repeat 3x for both guitars:
 
Guitar 1
      full full full full
        ^    ^    ^    ^
        |    |    |    |
eb|-----|----|----|----|-----|
Bb|--19-|-19-|-19-|-19-|-----|
Gb|--21b/-21b/-21b/-21b/-----|
Db|--------------------------|
Ab|--------------------------|
Eb|--------------------------||||||||||||||||||
                                              |
Guitar 2                                      |
eb|-------------------------------------------|
Bb|-------------------------------------------|
Gb|-------------------------------------------|
Db|--4----4--4----4--4----4----4----6----7----|
Ab|--4----4--4----4--4----4----4----6----7----|
Eb|--2----2--2----2--2----2----2----4----5----|


      full
        ^
        |
eb|-----|------|
Bb|--17-|~~~~--|
Gb|--19b/~~~~--|
Db|------------|
Ab|------------|
Eb|------------|
               |
               |
eb|------------|
Bb|------------|
Gb|------------|
Db|--2~~~------|
Ab|--2~~~------|
Eb|--0~~~------|


Leading into Bridge, both guitars pickscrape:

eb|----------------------------------|
Bb|----------------------------------|
Gb|----------------------------------|
Db|----------------------------------|
Ab|--////////////////////////////////|
Eb|--////////////////////////////////|


eb|----------------------------------|
Bb|----------------------------------|
Gb|----------------------------------|
Db|----------------------------------|
Ab|--////////////////////////////////|
Eb|--////////////////////////////////|


Bridge:

Guitar 1
eb|-------------------------------------------|
Bb|------------------------2----3----5----3---|
Gb|------------------/2-----------------------|
Db|-------------------------------------------|
Ab|-------------------------------------------|
Eb|-------------------------------------------|
                                              |
Guitar 2                                      |
eb|-------------------------------------------|
Bb|-------------------------------------------|
Gb|--------------------------------4----4-----|
Db|--7----7------------------------4----4-----|
Ab|--7----7------------------------2----2-----|
Eb|--5----5-----------------------------------|


eb|-------------------------------------------|
Bb|--------2--------0--------2----------------|
Gb|-------------------------------------------|
Db|-------------------------------------------|
Ab|-------------------------------------------|
Eb|-------------------------------------------|
                                              |
                                              |
eb|-------------------------------------------|
Bb|-------------------------------------------|
Gb|-------------------------------------------|
Db|--4----4-----------------------------------|
Ab|--4----4-----------------------------------|
Eb|--2----2-----------------------------------|


eb|-------------------------------------------|
Bb|-------------------------------------------|
Gb|-------1---------2---------1-----------2---|
Db|--2----------------------------------------|
Ab|-------------------------------------------|
Eb|-------------------------------------------|
                                              |
                                              |
eb|-------------------------------------------|
Bb|-------------------------------------------|
Gb|-------------------------------------------|
Db|--2----2------------------------4----4-----|
Ab|--2----2------------------------4----4-----|
Eb|--0----0------------------------2----2-----|


eb|-------------------------------------------|
Bb|--2----2----2----2----2----2----2----2-----|
Gb|--2----2----2----2----2----2----2----2-----|
Db|-------------------------------------------|
Ab|-------------------------------------------|
Eb|-------------------------------------------|
                                              |
                                              |
eb|-------------------------------------------|
Bb|-------------------------------------------|
Gb|--7----7-----------------------------------|
Db|--7----7-----------------------------------|
Ab|--5----5-----------------------------------|
Eb|-------------------------------------------|


eb|-------------------------------------------|
Bb|------------------------2----3----5----3---|
Gb|------------------/2-----------------------|
Db|-------------------------------------------|
Ab|-------------------------------------------|
Eb|-------------------------------------------|
                                              |
                                              |
eb|-------------------------------------------|
Bb|-------------------------------------------|
Gb|--------------------------------4----4-----|
Db|--7----7------------------------4----4-----|
Ab|--7----7------------------------2----2-----|
Eb|--5----5-----------------------------------|


eb|-------------------------------------------|
Bb|--------2--------0--------2----------------|
Gb|-------------------------------------------|
Db|-------------------------------------------|
Ab|-------------------------------------------|
Eb|-------------------------------------------|
                                              |
                                              |
eb|-------------------------------------------|
Bb|-------------------------------------------|
Gb|-------------------------------------------|
Db|--4----4-----------------------------------|
Ab|--4----4-----------------------------------|
Eb|--2----2-----------------------------------|


eb|-------------------------------------------|
Bb|----------------------0--------------------|
Gb|------------1------------------1---/9------|
Db|--2----------------------------------------|
Ab|-------------------------------------------|
Eb|-------------------------------------------|
                                              |
                                              |
eb|-------------------------------------------|
Bb|-------------------------------------------|
Gb|-------------------------------------------|
Db|--2----2------------------------4----4-----|
Ab|--2----2------------------------4----4-----|
Eb|--0----0------------------------2----2-----|


eb|--10---10---10---10---10---10---10---10----|
Bb|--9----9----9----9----9----9----9----9-----|
Gb|-------------------------------------------|
Db|-------------------------------------------|
Ab|-------------------------------------------|
Eb|-------------------------------------------|
                                              |
                                              |
eb|-------------------------------------------|
Bb|-------------------------------------------|
Gb|--7----7-----------------------------------|
Db|--7----7-----------------------------------|
Ab|--5----5-----------------------------------|
Eb|-------------------------------------------|


P.M. .    .    .    .    .    .    .    .
eb|-------------------------------------------|
Bb|-------------------------------------------|
Gb|-------------------------------------------|
Db|--12---12---12---12---12---11---11---12----|
Ab|-------------------------------------------|
Eb|-------------------------------------------|
                                              |
P.M. .    .    .    .    .    .    .    .     |
eb|-------------------------------------------|
Bb|-------------------------------------------|
Gb|-------------------------------------------|
Db|---------------------------4----4----------|
Ab|--7----7----7----7----7----2----2----4-----|
Eb|--5----5----5----5----5--------------2-----|


     .    .    .    .    .    .    .    .
eb|-------------------------------------------|
Bb|-------------------------------------------|
Gb|-------------------------------------------|
Db|--12---11---11---9----9----7----7----7-----|
Ab|-------------------------------------------|
Eb|-------------------------------------------|
                                              |
     .    .    .    .    .    .    .    .     |
eb|-------------------------------------------|
Bb|-------------------------------------------|
Gb|-------------------------------------------|
Db|-------------------------------------------|
Ab|--4----4----4----4----4----4----4----4-----|
Eb|--2----2----2----2----2----2----2----2-----|


     .    .    .    .    .    .    .    .
eb|-------------------------------------------|
Bb|-------------------------------------10----|
Gb|-------------------------------------7-----|
Db|--9----9----9----9----9----7----7----------|
Ab|-------------------------------------------|
Eb|-------------------------------------------|
                                              |
     .    .    .    .    .    .    .    .     |
eb|-------------------------------------------|
Bb|-------------------------------------------|
Gb|-------------------------------------------|
Db|---------------------------4----4----7-----|
Ab|--2----2----2----2----2----2----2----5-----|
Eb|--0----0----0----0----0--------------------|


     .    .    .    .    .    .
eb|-------------------------------------------|
Bb|----------------------10---10---10---10----|
Gb|--7----7----7----7----7----7----7----7-----|
Db|-------------------------------------------|
Ab|-------------------------------------------|
Eb|-------------------------------------------|
                                              |
     .    .    .    .    .    .    .    .     |
eb|-------------------------------------------|
Bb|-------------------------------------------|
Gb|-------------------------------------------|
Db|--7----7----7----7----7----7----7----7-----|
Ab|--5----5----5----5----5----5----5----5-----|
Eb|-------------------------------------------|


P.M. .    .    .    .    .    .    .    .
eb|-------------------------------------------|
Bb|-------------------------------------------|
Gb|-------------------------------------------|
Db|--12---12---12---12---12---11---11---12----|
Ab|-------------------------------------------|
Eb|-------------------------------------------|
                                              |
     .    .    .    .    .    .    .    .     |
eb|-------------------------------------------|
Bb|-------------------------------------------|
Gb|-------------------------------------------|
Db|---------------------------4----4----------|
Ab|--7----7----7----7----7----2----2----4-----|
Eb|--5----5----5----5----5--------------2-----|


     .    .    .    .    .    .    .    .
eb|-------------------------------------------|
Bb|-------------------------------------------|
Gb|-------------------------------------------|
Db|--12---14---14---12---12---11---11---11----|
Ab|-------------------------------------------|
Eb|-------------------------------------------|
                                              |
     .    .    .    .    .    .    .    .     |
eb|-------------------------------------------|
Bb|-------------------------------------------|
Gb|-------------------------------------------|
Db|-------------------------------------------|
Ab|--4----4----4----4----4----4----4----4-----|
Eb|--2----2----2----2----2----2----2----2-----|


     .    .    .    .    .    .    .    .
eb|-------------------------------------------|
Bb|-------------------------------------------|
Gb|-------------------------------------7-----|
Db|--9----9----9----9----9----7----7----------|
Ab|-------------------------------------------|
Eb|-------------------------------------------|
                                              |
     .    .    .    .    .    .    .    .     |
eb|-------------------------------------------|
Bb|-------------------------------------------|
Gb|-------------------------------------------|
Db|---------------------------4----4----7-----|
Ab|--2----2----2----2----2----2----2----5-----|
Eb|--0----0----0----0----0--------------------|


     .    .    .    .
eb|--------------------------------9----9-----|
Bb|------------10---10---10---10---10---10----|
Gb|--7----7----7----7----7----7----7----7-----|
Db|-------------------------------------------|
Ab|-------------------------------------------|
Eb|-------------------------------------------|
                                              |
     .    .    .    .                         |
eb|-------------------------------------------|
Bb|-------------------------------------------|
Gb|----------------------7----7----7----7-----|
Db|--7----7----7----7----7----7----7----7-----|
Ab|--5----5----5----5----5----5----5----5-----|
Eb|-------------------------------------------|



eb|--10---10---10---9----9----9----10---10----|
Bb|--10---10---10---10---10---10---10---10----|
Gb|-------------------------------------------|
Db|-------------------------------------------|
Ab|-------------------------------------------|
Eb|-------------------------------------------|
                                              |
                                              |
eb|-------------------------------------------|
Bb|-------------------------------------------|
Gb|---------------------------4----4----------|
Db|--7----7----7----7----7----4----4----4-----|
Ab|--7----7----7----7----7----2----2----4-----|
Eb|--5----5----5----5----5--------------2-----|



eb|--10---9----9----9----7----7----5----5-----|
Bb|--10---------------------------------------|
Gb|-------------------------------------------|
Db|-------------------------------------------|
Ab|-------------------------------------------|
Eb|-------------------------------------------|
                                              |
                                              |
eb|-------------------------------------------|
Bb|-------------------------------------------|
Gb|-------------------------------------------|
Db|--4----4----4----4----4----4----4----4-----|
Ab|--4----4----4----4----4----4----4----4-----|
Eb|--2----2----2----2----2----2----2----2-----|



eb|--7----7----7----7----7----7----7----10----|
Bb|-------------------------------------10----|
Gb|-------------------------------------------|
Db|-------------------------------------------|
Ab|-------------------------------------------|
Eb|-------------------------------------------|
                                              |
                                              |
eb|-------------------------------------------|
Bb|-------------------------------------------|
Gb|---------------------------4----4----7-----|
Db|--2----2----2----2----2----4----4----7-----|
Ab|--2----2----2----2----2----2----2----5-----|
Eb|--0----0----0----0----0--------------------|



eb|--10---10---10---10---10---10---10---10----|
Bb|--10---10---10---10---10---10---10---10----|
Gb|-------------------------------------------|
Db|-------------------------------------------|
Ab|-------------------------------------------|
Eb|-------------------------------------------|
                                              |
                                              |
eb|-------------------------------------------|
Bb|-------------------------------------------|
Gb|--7----7----7----7----7----7----7----7-----|
Db|--7----7----7----7----7----7----7----7-----|
Ab|--5----5----5----5----5----5----5----5-----|
Eb|-------------------------------------------|



eb|--10---10---10---9----9----9----10---10----|
Bb|--10---10---10---10---10---10---10---10----|
Gb|-------------------------------------------|
Db|-------------------------------------------|
Ab|-------------------------------------------|
Eb|-------------------------------------------|
                                              |
                                              |
eb|-------------------------------------------|
Bb|-------------------------------------------|
Gb|---------------------------4----4----------|
Db|--7----7----7----7----7----4----4----4-----|
Ab|--7----7----7----7----7----2----2----4-----|
Eb|--5----5----5----5----5--------------2-----|



eb|--10--------9---------10--------12---------|
Bb|--10---10--------10--------10--------10----|
Gb|-------------------------------------------|
Db|-------------------------------------------|
Ab|-------------------------------------------|
Eb|-------------------------------------------|
                                              |
                                              |
eb|-------------------------------------------|
Bb|-------------------------------------------|
Gb|-------------------------------------------|
Db|--4----4----4----4----4----4----4----4-----|
Ab|--4----4----4----4----4----4----4----4-----|
Eb|--2----2----2----2----2----2----2----2-----|



eb|--7----7----7----7----7----9---------10~---|
Bb|---------------------------10--------10~---|
Gb|-------------------------------------------|
Db|-------------------------------------------|
Ab|-------------------------------------------|
Eb|-------------------------------------------|
                                              |
                                              |
eb|-------------------------------------------|
Bb|-------------------------------------------|
Gb|-------------------------------------7-----|
Db|--2----2----2----2----2----4---------7-----|
Ab|--2----2----2----2----2----4---------5-----|
Eb|--0----0----0----0----0----2---------------|



eb|-------10---10---10---10---9---------10----|
Bb|-------10---10---10---10---10--------10----|
Gb|-------------------------------------------|
Db|-------------------------------------------|
Ab|-------------------------------------------|
Eb|-------------------------------------------|
                                              |
                                              |
eb|-------------------------------------------|
Bb|-------------------------------------------|
Gb|-------7----7----7----7--------------7-----|
Db|-------7----7----7----7----4---------7-----|
Ab|-------5----5----5----5----4---------5-----|
Eb|---------------------------2---------------|



eb|-------10---10---10---10---9---------10----|
Bb|-------10---10---10---10---10--------10----|
Gb|-------------------------------------------|
Db|-------------------------------------------|
Ab|-------------------------------------------|
Eb|-------------------------------------------|
                                              |
                                              |
eb|-------------------------------------------|
Bb|-------------------------------------------|
Gb|-------7----7----7----7--------------7-----|
Db|-------7----7----7----7----4---------7-----|
Ab|-------5----5----5----5----4---------5-----|
Eb|---------------------------2---------------|



eb|-------10---10---10---10---10---10---7-----|
Bb|-------10---10---10---10---10---10---0-----|
Gb|-------------------------------------------|
Db|-------------------------------------------|
Ab|-------------------------------------------|
Eb|-------------------------------------------|
                                              |
                                              |
eb|-------------------------------------------|
Bb|-------------------------------------------|
Gb|-------7----7----7----7----7----7----9-----|
Db|-------7----7----7----7----7----7----9-----|
Ab|-------5----5----5----5----5----5----7-----|
Eb|-------------------------------------------|



eb|-------7----7----7----7----7----7----7-----|
Bb|-------0----0----0----0----0----0----0-----|
Gb|-------------------------------------------|
Db|-------------------------------------------|
Ab|-------------------------------------------|
Eb|-------------------------------------------|
                                              |
                                              |
eb|-------------------------------------------|
Bb|-------------------------------------------|
Gb|-------9----9----9----9----9----9----9-----|
Db|-------9----9----9----9----9----9----9-----|
Ab|-------7----7----7----7----7----7----7-----|
Eb|-------------------------------------------|



eb|--0~~~~~-----------------------------------|
Bb|-------------------------------------------|
Gb|-------------------------------------------|
Db|-------------------------------------------|
Ab|-------------------------------------------|
Eb|-------------------------------------------|
                                              |
                                              |
eb|-------------------------------------------|
Bb|-------------------------------------------|
Gb|-------------------------------------------|
Db|--4~~~~~-----------------------------------|
Ab|--4~~~~~-----------------------------------|
Eb|--2~~~~~-----------------------------------|


After 2 1/2 bars of silence, rhythm comes in:

Guitar 2 only
eb|-------------------------------------------|
Bb|-------------------------------------------|
Gb|-----------------------7----7--7----7--7---|
Db|--4----4--4----4--4----7----7--7----7--7---|
Ab|--4----4--4----4--4----5----5--5----5--5---|
Eb|--2----2--2----2--2------------------------|
            Spin              out          of 

Guitar 2 only
eb|-------------------------------------------|
Bb|-------------------------------------------|
Gb|-------------------------------------------|
Db|--2----2--2----2--2----2----2--2----2--2---|
Ab|--2----2--2----2--2----2----2--2----2--2---|
Eb|--0----0--0----0--0----0----0--0----0--0---|
      control

Guitar 2 only
eb|-------------------------------------------|
Bb|-------------------------------------------|
Gb|-----------------------7----7--7----7--7---|
Db|--4----4--4----4--4----7----7--7----7--7---|
Ab|--4----4--4----4--4----5----5--5----5--5---|
Eb|--2----2--2----2--2------------------------|
            Spin              out          of 
Guitar 2 only
eb|-------------------------------------------|
Bb|-------------------------------------------|
Gb|-------------------------------------------|
Db|--2----2--2----2--2----2----2--2----2--2---|
Ab|--2----2--2----2--2----2----2--2----2--2---|
Eb|--0----0--0----0--0----0----0--0----0--0---|
      control


On the last "control" start to pickslide into the 

Outro:

Guitar 1 only
eb|-------------------------------------------|
Bb|-------------------------------------------|
Gb|-------------------------------------------|
Db|-------------------------------------------|
Ab|---------------------//////////////////////|
Eb|---------------------//////////////////////|

Guitar 1
eb|-------------------------------------------|
Bb|-------------------------------------------|
Gb|--11---11-11---11-11---14---14-14---14-14--|
Db|--x----x--x----x--x----x----x--x----x--x---|
Ab|--9----9--9----9--9----12---12-12---12-12--|
Eb|-------------------------------------------|
                                              |
Guitar 2                                      |
eb|-------------------------------------------|
Bb|-------------------------------------------|
Gb|-----------------------7----7--7----7--7---|
Db|--4----4--4----4--4----7----7--7----7--7---|
Ab|--4----4--4----4--4----5----5--5----5--5---|
Eb|--2----2--2----2--2------------------------|


eb|-------------------------------------------|
Bb|-------------------------------------------|
Gb|--13---9----9--9----13---14---11-----------|
Db|--x----x----x--x----x----x----x------------|
Ab|--11---7----7--7----11---12---13-----------|
Eb|-------------------------------------------|
                                              |
                                              |
eb|-------------------------------------------|
Bb|-------------------------------------------|
Gb|-------------------------------------------|
Db|--2----2--2----2--2----2----2--2----2--2---|
Ab|--2----2--2----2--2----2----2--2----2--2---|
Eb|--0----0--0----0--0----0----0--0----0--0---|


eb|-------------------------------------------|
Bb|-------------------------------------------|
Gb|--11---11-11---11-11---14---14-14---14-14--|
Db|--x----x--x----x--x----x----x--x----x--x---|
Ab|--9----9--9----9--9----12---12-12---12-12--|
Eb|-------------------------------------------|
                                              |
                                              |
eb|-------------------------------------------|
Bb|-------------------------------------------|
Gb|-----------------------7----7--7----7--7---|
Db|--4----4--4----4--4----7----7--7----7--7---|
Ab|--4----4--4----4--4----5----5--5----5--5---|
Eb|--2----2--2----2--2------------------------|


eb|-------------------------------------------|
Bb|-------------------------------------------|
Gb|--13---13-13---13-13---13---13---13---13---|
Db|--x----x--x----x--x----x----x----x----x----|
Ab|--11---11-11---11-11---11---11---11---11---|
Eb|-------------------------------------------|
                                              |
                                              |
eb|-------------------------------------------|
Bb|-------------------------------------------|
Gb|----------------------------7*---7*---7*---|
Db|--2----2--2----2--2----2-------------------|
Ab|--2----2--2----2--2----2-------------------|
Eb|--0----0--0----0--0----0-------------------|


eb|-------------------------------------------|
Bb|-------------------------------------------|
Gb|--11---11---11---11---14---14---14---14----|
Db|--x----x----x----x----x----x----x----x-----|
Ab|--9----9----9----9----12---12---12---12----|
Eb|-------------------------------------------|
                                              |
                                              |
eb|-------------------------------------------|
Bb|-------------------------------------------|
Gb|----------------------7----7----7----7-----|
Db|--4----4----4----4----7----7----7----7-----|
Ab|--4----4----4----4----5----5----5----5-----|
Eb|--2----2----2----2-------------------------|


eb|-------------------------------------------|
Bb|-------------------------------------------|
Gb|--13---13---13---13---13---13---13---13----|
Db|--x----x----x----x----x----x----x----x-----|
Ab|--11---11---11---11---11---11---11---11----|
Eb|-------------------------------------------|
                                              |
                                              |
eb|-------------------------------------------|
Bb|-------------------------------------------|
Gb|-------------------------------------------|
Db|--2----2----2----2----2----2----2----2-----|
Ab|--2----2----2----2----2----2----2----2-----|
Eb|--0----0----0----0----0----0----0----0-----|


eb|-------------------------------------------|
Bb|-------------------------------------------|
Gb|--11---11---11---11---14---14---14---14----|
Db|--x----x----x----x----x----x----x----x-----|
Ab|--9----9----9----9----12---12---12---12----|
Eb|-------------------------------------------|
                                              |
                                              |
eb|-------------------------------------------|
Bb|-------------------------------------------|
Gb|----------------------7----7----7----7-----|
Db|--4----4----4----4----7----7----7----7-----|
Ab|--4----4----4----4----5----5----5----5-----|
Eb|--2----2----2----2-------------------------|


eb|-------------------------------------------|
Bb|-------------------------------------------|
Gb|--13-------7----7-----13-----14------13----|
Db|--x--------x----x-----x------x-------x-----|
Ab|--11-------9----9-----11-----12------11----|
Eb|-------------------------------------------|
                                              |
                                              |
eb|-------------------------------------------|
Bb|-------------------------------------------|
Gb|-------------------------------------------|
Db|--2----2----2----2----2----2----2----2-----|
Ab|--2----2----2----2----2----2----2----2-----|
Eb|--0----0----0----0----0----0----0----0-----|


eb|-------------------------------------------|
Bb|-------------------------------------------|
Gb|--11---11---11---11---14---14---14---14----|
Db|--x----x----x----x----x----x----x----x-----|
Ab|--9----9----9----9----12---12---12---12----|
Eb|-------------------------------------------|
                                              |
                                              |
eb|-------------------------------------------|
Bb|-------------------------------------------|
Gb|----------------------7----7----7----7-----|
Db|--4----4----4----4----7----7----7----7-----|
Ab|--4----4----4----4----5----5----5----5-----|
Eb|--2----2----2----2-------------------------|


eb|-------------------------------------------|
Bb|-------------------------------------------|
Gb|--13---13---13---13---13---13---13---13----|
Db|--x----x----x----x----x----x----x----x-----|
Ab|--11---11---11---11---11---11---11---11----|
Eb|-------------------------------------------|
                                              |
                                              |
eb|-------------------------------------------|
Bb|-------------------------------------------|
Gb|-------------------------------------------|
Db|--2----2----2----2----2----2----2----2-----|
Ab|--2----2----2----2----2----2----2----2-----|
Eb|--0----0----0----0----0----0----0----0-----|


eb|-------------------------------------------|
Bb|-------------------------------------------|
Gb|--11~-----------------14~------------------|
Db|--x-------------------x--------------------|
Ab|--9-~-----------------12~------------------|
Eb|-------------------------------------------|
                                              |
                                              |
eb|-------------------------------------------|
Bb|-------------------------------------------|
Gb|----------------------7~-------------------|
Db|--4~------------------7~-------------------|
Ab|--4~------------------5~-------------------|
Eb|--2~---------------------------------------|


eb|-------------------------------------------|
Bb|-------------------------------------------|
Gb|--13~~-------------------------------------|
Db|--x----------------------------------------|
Ab|--11~~-------------------------------------|
Eb|-------------------------------------------|
                                              |
                                              |
eb|-------------------------------------------|
Bb|-------------------------------------------|
Gb|-------------------------------------------|
Db|--2~~~-------------------------------------|
Ab|--2~~~-------------------------------------|
Eb|--0~~~-------------------------------------|







| /  slide up
| \  slide down
| h  hammer-on
| p  pull-off
| b  bend
| ~  vibrato
| *  harmonic
| x  Mute note
| /// pick scrape
===============================================================================
Related for Kotov Syndrome tab