Song name
# A B C D E F G H I J K L M N O P Q R S T U V W X Y Z

Rise Against - Death Blossoms tab

DEATH BLOSSOMS - Rise Against

this is my first tab, so dont be too hard on me, i couldn't tabs the solo, and alot of 
strumming

patterns may need to be modified, I will prolly post a video on youtube to help explain 
teach it

if u have any questions e-mail me at sasha.rocking.out@live.com

ROCK ON!!!!!

INTRO

|---------------|
|---------------|
|----------9----|
|----------9----|Repeat chord until; Under black coals…
|----------7----|
|---------------|

VERSE 1

|----------------------------|
|----------------------------|
|---77--555--999-------------|
|---77--555--999----7-7777---| X2 and then…
|---55--333--777----7-7777---|
|-------------------5-5555---|

|------------------------|
|------------------------|
|------------------------| X1
|---77--555--999--22222--|
|---77--555--999--22222--|
|---55--333--777--00000--|


|------------------------------------|
|------------------------------------|
|----888—---11-11-11-10-10-9-9-888---|
|----888-----------------------------|
|----666-----------------------------|
|------------------------------------|

Repeat VERSE 1 then INTRO




CHOURUS

|-------------------------------------------|
|-------------------------------------------|
|---11-11--999--15-15-15--------------------|
|---11-11--999--15-15-15--11-11-11-11-11----|
|---9--9---777--13-13-13--11-11-11-11-11----|
|-------------------------9--9--9--9--9-----|

VERSE 2

|---------------------------------|
|---------------------------------|
|---------------------------------|
|---------------------------------| x 3
|-11-11-11-11-10-10-10-9-9-8-8-0--|
|---------------------------------|


|--------------------|
|--------------------|
|------888888888-8-8-|
|------888888888-8-8-|
|------666666666-6-6-|
|--------------------|

|------------------------------------|
|------------------------------------|
|----888—---11-11-11-10-10-9-9-888---|
|----888-----------------------------|
|----666-----------------------------|
|------------------------------------|

|---------------------------------------|
|---------------------------------------|
|-----1111-1010----1010-1111(111111)----| On the
|-----1111-1010----1010-1111(111111)----| 3rd time
|-----9-9--8-8-----8-8--9-9-(9-9-9-)----| add the()
|---------------------------------------|

[CHOURUS]
*lead right into the bridge without stopping, in fact the singer should still be on “WE 
OUR OWN TO STAY ALIVE!” when u start


BRIDGE

|----------------------------------|
|----------------------------------|
|----------------------------------|
|-----4-2-4-2-4-6~-----------------|
|-----4-2-4-2-4-6~-----------------|
|-----2-0-2-0-2-4~-----------------|


ORDER

INTRO
VERSE 1 X2
INTRO
CHOURUS
VERSE 2
CHOURUS
BRIDGE
SOLO   (un-tabbed, sorry u’ll have to figure it
BRIDGE  out, it became very problematic to tab)

VERSE  *pattern

BRIDGE *pattern
Tap to rate this tab
 
# A B C D E F G H I J K L M N O P Q R S T U V W X Y Z