Song name
# A B C D E F G H I J K L M N O P Q R S T U V W X Y Z

Rise Against - Collapse tab

Song- Collapse(Post-Amerika) By- Rise Against
Tabbed by- slipknotrox

 /  slide up    br- bend release
 \  slide down
 h  hammer-on
 p  pull-off
 ~  vibrato
 *  harmonic
 x  Mute note

Intro
gt.1(0sec)to(23sec)
E----------------------------------------------|
B----------------------------------------------|
G-5/7~-----5/7-7-7--4/7-7-7--7-7-7-7/9-9-9-9---|
D-5/7~-----5/7-7-7--4/7-7-7--7-7-7-7/9-9-9-9---|
A-3/5~-----3/5-5-5--2/5-5-5--5-5-5-5/7-7-7-7---|
E----------------------------------------------|x6

(9sec)
gt.2 (during the second time through with the intro)
E---------------------------------------------|
B---------------------------------------------|
G---------------------------------------------|
D---------------------------------------------|
A---------------------------------------------|
E-12/////1------------------------------------|x1
(slide with pick)

gt.2 (18sec) to (23sec)
E---------------------------------------------------|
B-13^14br13--13^14br13-11-10------------------------|
G----------------------------12-10-9----------------|
D------------------------------------11-9-8---------|
A-------------------------------------------11-9-8~-|
E---------------------------------------------------|

E--------------------12-14-14^15br14-14------------|
B-13^14-13^14-13^14--------------------------------|
G--------------------------------------------------|
D--------------------------------------------------|
A--------------------------------------------------|
E--------------------------------------------------|x1
gt.1 and gt.2 (24sec) to (28sec)
E-----------------------------------------|
B-----------------------------------------|
G-7-7-7-7--7-7-7-7--7-7-7-7--7-7-7-7/5-7~-|
D-7-7-7-7--7-7-7-7--7-7-7-7--7-7-7-7/5-7~-|
A-5-5-5-5--5-5-5-5--5-5-5-5--5-5-5-5/3-5~-|
E-----------------------------------------|x1

verse
gt.1 (29sec)to(42sec)
E----------------------------------------|
B----------------------------------------|
G-----------7---3-5-4-5-7----------------|
D-----------7---3-5-4-5-7----------------|
A-----------5---1-3-2-3-5----------------|
E-12/////1-------------------------------|x2

chorus
gt.1 and gt.2 (43sec)to(1min 6sec)
E--------------------------------------------|
B--------------------------------------------|
G-9---6---8---5--6--8--9-7--7-7-7-7--9-9-9-9-|
D-9---6---8---5--6--8--9-7--7-7-7-7--9-9-9-9-|
A-7---4---6---3--4--6--7-5--5-5-5-5--7-7-7-7-|
E--------------------------------------------|

E------------------|
B------------------|
G-7-7-7-7--9-9-9-9-|
D-7-7-7-7--9-9-9-9-|
A-5-5-5-5--7-7-7-7-|
E------------------|x4

E-------------|
B-------------|
G-7~----------|
D-7~----------|
A-5~----------|
E----12/////0-|x1

verse 2
gt.1 gt.2 (1min 10sec) to (1min 19sec)
E-------------------------|
B-------------------------|
G-7--7-7-7-7-3-5-4-5-7----|
D-7--7-7-7-7-3-5-4-5-7----|
A-5--5-5-5-5-1-3-2-3-5----|
E-------------------------|x2 second time with palm muting

chorus
gt.1 and gt.2 (1min 20sec) to (1min 40sec)
E--------------------------------------------|
B--------------------------------------------|
G-9---6---8---5--6--8--9-7--7-7-7-7--9-9-9-9-|
D-9---6---8---5--6--8--9-7--7-7-7-7--9-9-9-9-|
A-7---4---6---3--4--6--7-5--5-5-5-5--7-7-7-7-|
E--------------------------------------------|

E------------------|
B------------------|
G-7-7-7-7--9-9-9-9-|
D-7-7-7-7--9-9-9-9-|
A-5-5-5-5--7-7-7-7-|
E------------------|x4

(bass solo)

bridge
gt.1 and gt.2 (1min 50sec) to (2min 16sec)
E---------------------------------|
B---------------------------------|
G-4-4-4-4-4-4-4-4-4-4-4-4-4-4-4-4-|
D-4-4-4-4-4-4-4-4-4-4-4-4-4-4-4-4-|
A-2-2-2-2-2-2-2-2-2-2-2-2-2-2-2-2-|
E---------------------------------|x1

(another bass solo)
E---------------------------------|
B---------------------------------|
G-4-4-4-4-4-4-4-4-4-4-4-4-4-4-4-4-|
D-4-4-4-4-4-4-4-4-4-4-4-4-4-4-4-4-|
A-2-2-2-2-2-2-2-2-2-2-2-2-2-2-2-2-|
E---------------------------------|x1

E----------|
B----------|
G-5-9-5-3--|
D-5-9-5-3--|
A-3-7-3-1--|
E----------|x3

solo
gt.1 (2min 14sec) to (2min 40sec)
E----------|
B----------|
G-9---7----|
D-9---7----|
A-7---5----|
E----------|

gt.2
E-----------------------------------------------|
B-----------------------------------------------|
G-9^10br9----------------9^10br9----------------|
D---------10-8-7~--7/11~---------10-8-7~--7/11~-|
A-----------------------------------------------|
E-----------------------------------------------|x1

(not tremolo picking)
E---------------------------------------------------------|
B---------------------------------------------------------|
G-14-14-14-14-14~--11-11-11-11-11-11~--16-16-16-16-16-16~-|
D---------------------------------------------------------|
A---------------------------------------------------------|
E---------------------------------------------------------|

E-----------------|
B-----------------|
G-14-16-14-16-----|
D-----------------|
A-----------------|
E-----------------|

E---------------------|
B---------------------|
G-14*-14*-14*-14*-14*-|
D---------------------|
A---------------------|
E---------------------|x4

bridge (2min 40sec) to (2min 50sec)
gt.1
E----------------|
B----------------|
G-3-3-3--3-------|
D-3-3-3--3--5----|
A-1-1-1--1--5----|
E-----------3----|x2

E-------------|
B-------------|
G-3-3-3--3--5-|
D-3-3-3--3--5-|
A-1-1-1--1--3-|
E-------------|x1

chorus (2min 51sec) to (3min 3sec)
gt.1
E-------------------------|
B-------------------------|
G---9-7--7-7-7-7--9-9-9-9-|
D---9-7--7-7-7-7--9-9-9-9-|
A---7-5--5-5-5-5--7-7-7-7-|
E-------------------------|x4

gt.2 (2min 58 sec) to (3min 3sec)
E---------------------------------------------------|
B-13^14br13--13^14br13-11-10------------------------|
G----------------------------12-10-9----------------|
D------------------------------------11-9-8---------|
A-------------------------------------------11-9-8~-|
E---------------------------------------------------|

E--------------------12-14-14^15br14-14------------|
B-13^14-13^14-13^14--------------------------------|
G--------------------------------------------------|
D--------------------------------------------------|
A--------------------------------------------------|
E--------------------------------------------------|x1

outro
gt.1 and gt.2 (3min 4sec) to (3min 19sec)
E---------------------------------------------|
B---------------------------------------------|
G-7-7-7-7--7-7-7-7--7-7-7-7--7-7-7-7---7~-----|
D-7-7-7-7--7-7-7-7--7-7-7-7--7-7-7-7---7~-----|
A-5-5-5-5--5-5-5-5--5-5-5-5--5-5-5-5---5~-----|
E---------------------------------------------|x1

This is a great song and i think that I did alright on the tab. Have fun learning it! 
song rocks.
Tap to rate this tab
# A B C D E F G H I J K L M N O P Q R S T U V W X Y Z