Song name
# A B C D E F G H I J K L M N O P Q R S T U V W X Y Z

Rise Against - Swing Life Away Acoustic tab

Help us improve GuitareTab! Take a short survey!
 Hey it's my first tab, it's pretty accurate, I'm 13 so it should be good
 for my age. It's from a live version they played at a radio show.
 E-mail me @: Worldindustries711@yahoo.com and please rate.
Intro:
e--------------------------------------------------------------------------|
b-0-------------3-3333-3-3333--0--------------3-3-333-3-3-333--------------|
g---0---2-0-----0-0000-0-0000----0---2--0-----0-0-000-0-0-000--------------|
d-----0-----4---x-xxxx-x-xxxx------0-------4--x-x-xxx-x-x-xxx--------------|
a---------------3-3333-3-3333-----------------3-3-333-3-3-333--------------|
e--------------------------------------------------------------------------|

e--------------------------------------------------------------------------|
b--0-----------0-0000-0-0000-3-3333-3-3333-3-------------------------------|
g----0---2-0---0-0000-0-0000-2-2222-2-2222-2-------------------------------|
d------0-----4-x-xxxx-x-xxxx-0-0000-0-0000-0-------------------------------|
a--------------3-3333-3-3333-0-0000-0-0000-0-------------------------------|
e--------------------------------------------------------------------------|

Verse 1:

e--------------------------------------------------|
b-----------------5-5555 5-5555--------------------|
g---------5-5555--5-5555-5-5555--------------------|( Play 3 times)
d-2-2222--5-5555--3-3333-3-3333--------------------|
a-2-2222--3-3333-----------------------------------|
e-0-0000-------------------------------------------|

e-0-0000-0-0000-0---------------------------------| ( After third time 
b-3-3333-3-3333-3---------------------------------| ( From the above notes,)
g-0-0000-0-0000-0---------------------------------| ( Play this)
d-4-4444-4-4444-4---------------------------------|
a-5-5555-5-5555-5---------------------------------|
e-------------------------------------------------|

e--------------------------------------------------|
b-----------------5-5555 5-5555--------------------|
g---------5-5555--5-5555-5-5555--------------------|( Play 3 times)
d-2-2222--5-5555--3-3333-3-3333--------------------|
a-2-2222--3-3333-----------------------------------|
e-0-0000-------------------------------------------|

e-0-0000-0-0000-0---------------------------------| ( After third time 
b-3-3333-3-3333-3---------------------------------| ( From the above notes,)
g-0-0000-0-0000-0---------------------------------| ( Play this)
d-4-4444-4-4444-4---------------------------------|
a-5-5555-5-5555-5---------------------------------|
e-------------------------------------------------|
 
  Chours:

e----------------------------- (Play 4x)  --------------|
b--------3-3333-3-3333-3-3333- (After the -3-3333-3-----|
g--------0-0000-0-0000-2-2222- 4th play   -2-2222-2-----|
d-2-2222-0-0000-0-0000-0-0000- this ->)   -0-0000-0-----|
a-2-2222-0-0000-3-3333-0-0000-            -0-0000-0-----|
e-0-0000-3-3333---------------            --------------|

Verse 2:

e--------------------------------------------------|
b-----------------5-5555 5-5555--------------------|
g---------5-5555--5-5555-5-5555--------------------|( Play 3 times)
d-2-2222--5-5555--3-3333-3-3333--------------------|
a-2-2222--3-3333-----------------------------------|
e-0-0000-------------------------------------------|

e-0-0000-0-0000-0---------------------------------| ( After third time 
b-3-3333-3-3333-3---------------------------------| ( From the above notes,)
g-0-0000-0-0000-0---------------------------------| ( Play this)
d-4-4444-4-4444-4---------------------------------|
a-5-5555-5-5555-5---------------------------------|
e-------------------------------------------------|

e--------------------------------------------------0-0000-0-0000-0---------|
b--------------------------5--------------5-5555---3-3333-3-3333-3---------|
g--------5------------5----5--------5-555-5-5555---0-0000-0-0000-0---------|
d-2------3-------2----5----3--2-222-3-333-3-3333---4-4444-4-4444-4---------|
a-2------3-------2----3-------2-222-3-333----------5-5555-5-5555-5---------|
e-0--------------0------------0-000----------------------------------------|

Chours:

e----------------------------- (Play 4x)  --------3-3333-3-3333-3-|
b--------3-3333-3-3333-3-3333- (After the -3-3333-3-3333-3-3333-3-|
g--------0-0000-0-0000-2-2222- 4th play   -2-2222-2-2222-2-2222-2-|
d-2-2222-0-0000-0-0000-0-0000- this ->)   -0-0000-0-0000-0-0000-0-|
a-2-2222-0-0000-3-3333-0-0000-            -0-0000-0-0000-0-0000-0-|
e-0-0000-3-3333---------------            ------------------------|

Verse 3:

e-0-0000--------0-0000--------0-0000---------------------------------------|
b-3-3333--------3-3333--------3-3333---------------3-3333------------------|
g-0-0000-5-5555-0-0000-5-5555-0-0000-5-5555--------0-0000------------------|
d-4-4444-5-5555-4-4444-5-5555-4-4444-5-5555-2-2222-0-0000------------------|
a-5-5555-3-3333-5-5555-3-3333-5-5555-3-3333-2-2222-3-3333------------------|
e-------------------------------------------0-0000-------------------------|

e-0-0000--------0-0000--------0-0000--------------------------------------|
b-3-3333--------3-3333--------3-3333---------------3-3333-3-3333-3-3333---|
g-0-0000-5-5555-0-0000-5-5555-0-0000-5-5555--------0-0000-0-0000-0-0000---|
d-4-4444-5-5555-4-4444-5-5555-4-4444-5-5555-2-2222-0-0000-0-0000-0-0000---|
a-5-5555-3-3333-5-5555-3-3333-5-5555-3-3333-2-2222-3-3333-3-3333-3-3333---|
e-------------------------------------------0-0000------------------------|

e----------------------------------------------------------------|
b-3-3333-5-5555-5-5555-5-----------------------------------------|
g-0-0000-5-5555-5-5555-5-----------------------------------------|
d-0-0000-3-3333-3-3333-3-----------------------------------------|
a-3-3333---------------------------------------------------------|
e----------------------------------------------------------------|

e-------------------------------------------------------0-0000-0-0000-0----|
b---------------------5-5555--------------5-5555-5-5555-3-3333-3-3333-3----|
g-----5----------5----5-5555--------5-555-5-5555-5-5555-0-0000-0-0000-0----|
d-2---3------2---5----3-3333--2-222-3-333-3-3333-3-3333-4-4444-4-4444-4----|
a-2---3------2---3------------2-222-3-333---------------5-5555-5-5555-5----|
e-0----------0----------------0-000----------------------------------------|

 Chours:

e----------------------------- (Play 4x)  --------------|
b--------3-3333-3-3333-3-3333- (After the -3-3333-3-----|
g--------0-0000-0-0000-2-2222- 4th play   -2-2222-2-----|
d-2-2222-0-0000-0-0000-0-0000- this ->)   -0-0000-0-----|
a-2-2222-0-0000-3-3333-0-0000-            -0-0000-0-----|
e-0-0000-3-3333---------------            --------------|

Outro:

e-0-0000----------------------            -3-3333-3-3333-3-3333------------|
b-3-3333---------------------- (Play 4x   -3-3333-3-3333-3-3333------------|
g-0-0000--------5-5555-5-5555- then play  -0-0000-0-0000-0-0000------------|
d-4-4444-2-2222-5-5555-5-5555- this ->)   -0-0000-0-0000-0-0000------------|
a-5-5555-2-2222-3-3333-3-3333-            -0-0000-0-0000-0-0000------------|
e--------0-0000---------------            -3-3333-3-3333-3-3333------------|

e---------------3-----------------------------------|
b--0------------3-----------------------------------|
g----0---2-0----0-----------------------------------|
d------0-----4--0-----------------------------------|
a---------------0-----------------------------------|
e---------------3-----------------------------------|

Took me 1.5 Hours so please rate
Again this was a live version so it was not exactly like the regular version
Thanks for visiting my first tab.

                Chris P.


Related for Swing Life Away Acoustic tab