Song name
# A B C D E F G H I J K L M N O P Q R S T U V W X Y Z

Rise Against - Dancing For Rain tab

E|---------------------------------------------------------------------------|
B|-6---7-----7-----7-----7---6---6---6-----6-----6-----6---------9-----9-----|
G|-------8-----8-----8-----8-----------6-----6-----6-----8---------6-----6---|
D|---------8-----8-----8-----------8-----8-----8-----8-----8-9-6-----6-----6-|
A|---6-----------------------------------------------------------------------|
E|---------------------------------------------------------------------------|

E|-----------------------------------------------------------|
B|-9-----9----7-6--4--6--7-----------------------------------|
G|---6-----6-------4-----4-----------------------------------|
D|-----6-----------4-----4-----------------------------------|
A|-----------------------------------------------------------|
E|-----------------------------------------------------------|


and at the second time, after the chorus, the same, but I put a little changes.. :D


E|-----------------------------------------------------------------------------|
B|-6---7-----7-----7-----7---6---6-----6-----6-----6-----6---------9-----9-----|
G|-------8-----8-----8-----8---6---6-----6-----6-----6-----8---------6-----6---|
D|---------8-----8-----8--------------8----8-----8-----8-----8-9-6-----6-----6-|
A|---6-------------------------------------------------------------------------|
E|-----------------------------------------------------------------------------|

E|-----------------------------------------------------------|
B|-9-----9----7-6--4--6--7-----------------------------------|
G|---6-----6-------4--4--4-----------------------------------|
D|-----6-----------4--4--4-----------------------------------| X2
A|-----------------------------------------------------------|
E|-----------------------------------------------------------|
Tap to rate this tab
# A B C D E F G H I J K L M N O P Q R S T U V W X Y Z