Song name
# A B C D E F G H I J K L M N O P Q R S T U V W X Y Z

Rise Against - Savior tab

**keep 2nd finger on the 4 on the 4th string through whole line except end**
|-------------------------------------------------------------|
|--------------------------2-----2-2-2-2-2-2-2-2-2-2-2-2-2-2--|
|--6-----2-----4---6---4-2-2-2-2-2-2-2-2-2-2-2-2-2-2-2-2-2-2--|
|--4-4-4-4-4-4-4-4-4-4-4-4------------------------------------|
|-------------------------------------------------------------|
|-------------------------------------------------------------|
use palm mute when necessary.

|---------------------------------------------------------------|
|---------------------------------------------------------------|
|--6-----2-----4---6---4---2-------------2-2-1-1-1-1-1-1-1-1-1--|
|--0-0-0-0-0-0-0-0-0-0-0-0-0-0-0-0-0-0-0-2-2-2-2-2-2-2-2-2-2-2--|
|---------------------------------------------------------------|
|---------------------------------------------------------------|
use palm mute when necessary.

**Now repeat the top section**

**Now repeat the bottom line but replace the last part with:
|-----------------|
|-----------------|
|--2-2-1-0~~~~~~--|
|--2-2-2-0~~~~~~--|
|-----------------|
|-----------------|
Tap to rate this tab
 
# A B C D E F G H I J K L M N O P Q R S T U V W X Y Z