Guitaretab - guitar tabs
Song name
# A B C D E F G H I J K L M N O P Q R S T U V W X Y Z

Rise Against - The Good Left Undone tab

Rise Against - The Good Left Undone

Tuning: Eb(half-step down)


INTRO
Guitar 1
Eb|----------------------------------------------------------------|
Ab|----------------------------------------------------------------|
Db|--7-7-7-7-7-7-7---7-7-7-7-7-7-7---7-7-7-7-7-7-7---7-7-7-7-7-7-7-|
Gb|--x-x-x-x-x-x-x---x-x-x-x-x-x-x---x-x-x-x-x-x-x---x-x-x-x-x-x-x-|
Bb|--5-5-5-5-5-5-5---5-5-5-5-5-5-5---5-5-5-5-5-5-5---5-5-5-5-5-5-5-|
Eb|----------------------------------------------------------------|
				   

Guitar 2 Starts at the 3rd time
|------------------------------------------------------------------|
|------------------------------------------------------------------|
|--14-14-14-14-14-14-14---14-14-14-14-14-14-14---------------------|
|--xx-xx-xx-xx-xx-xx-xx---xx-xx-xx-xx-xx-xx-xx---------------------|
|--12-12-12-12-12-12-12---12-12-12-12-12-12-12---------------------|
|------------------------------------------------------------------|

VERSE
Guitar 1
|-------------------------------------------------------------------------|
|-------------------------------------------------------------------------|
|-77777777777777---77777777\555---5555555---9999999---7777777/9-9-10-9-9-9|
|-xxxxxxxxxxxxxx---xxxxxxxx\xxx---xxxxxxx---xxxxxxx---xxxxxxx/9-9-10-9-9-9|
|-55555555555555---55555555\333---3333333---7777777---5555555/7-7-8--7-7-7|
|-------------------------------------------------------------------------|

Guitar 2
|--------------------------------
|--------------------------------
|-77777777777777-----------------
|-77777777777777---888888888888--
|-55555555555555---888888888888--
|------------------666666666666--
  ..............   ............ 

--------------------------------------------------------------|
--------------------------------------------------------------|
-10101010101010-------------------12121212121212-9-9-10-9-9-9-|
-10101010101010-------------------12121212121212-9-9-10-9-9-9-|
-8-8-8-8-8-8-8---10101010101010---10101010101010-7-7-8--7-7-7-|
-----------------8-8-8-8-8-8-8--------------------------------|
 . . . . . . .   . . . . . . .    . . . . . . .



PRE-CHORUS PART I
Guitar 1
|-------------------------------------------------------------------|
|-------------------------------------------------------------------|
|-7-7-7-7-7-7-7-7-7-7-7-7-7-7-7-7---------------------------5-5-5-5-|
|-7-7-7-7-7-7-7-7-7-7-7-7-7-7-7-7---8-8-8-8-7-7-7-7-5-5-5-5-5-5-5-5-|
|-5-5-5-5-5-5-5-5-5-5-5-5-5-5-5-5---8-8-8-8-7-7-7-7-5-5-5-5-3-3-3-3-|
|-----------------------------------6-6-6-6-5-5-5-5-3-3-3-3---------|



PRE-CHORUS PART II
Guitar 1
|-------------------------------------------------------------------|
|-------------------------------------------------------------------|
|-7-7-7-7-7-7-7-7-7-7-7-7-7-7-7-7-----------------------------------|
|-7-7-7-7-7-7-7-7-7-7-7-7-7-7-7-7---8-8-8-8-7-7-7-7-5-5-5-5-5-5-5-5-|
|-5-5-5-5-5-5-5-5-5-5-5-5-5-5-5-5---8-8-8-8-7-7-7-7-5-5-5-5-5-5-5-5-|
|-----------------------------------6-6-6-6-5-5-5-5-3-3-3-3-3-3-3-3-|


PRE-CHORUS PART III
Guitar 1
|----------------------------------------------------------------|
|----------------------------------------------------------------|
|----------------------------------------------------------------|
|-3--3-3-3-3-3---5--5-5-5-5-5-5-5---8-8-8-8-7-7-7-7-5------------|
|-3--3-3-3-3-3---5--5-5-5-5-5-5-5---8-8-8-8-7-7-7-7-5------------|
|-1--1-1-1-1-1---3--3-3-3-3-3-3-3---6-6-6-6-5-5-5-5-3------------|


CHORUS
Guitar 1
|-----------------------------------------------------------------------|
|-----------------------------------------------------------------------|
|-7-7-7-7-7-7-7-7---------------------5-5-5-5-5-5-5-5-------------------|
|-7-7-7-7-7-7-7-7---3-3-3-3-3-3-3-3---5-5-5-5-5-5-5-5---8-8-8-8-8-8-8-8-|
|-5-5-5-5-5-5-5-5---3-3-3-3-3-3-3-3---3-3-3-3-3-3-3-3---8-8-8-8-8-8-8-8-|
|-------------------1-1-1-1-1-1-1-1---------------------6-6-6-6-6-6-6-6-|

Guitar 2
|-----------------------------
|-10-10-------10-10-----------
|-------10-10-------10-10-----
|-----------------------------     repeat
|-----------------------------
|-----------------------------

INTRO - Downstrokes
Guitar 1
|----------------------------------------------------------------|
|----------------------------------------------------------------|
|--7-7-7-7-7-7-7---7-7-7-7-7-7-7---7-7-7-7-7-7-7---7-7-7-7-7-7-7-|
|--x-x-x-x-x-x-x---x-x-x-x-x-x-x---x-x-x-x-x-x-x---x-x-x-x-x-x-x-|
|--5-5-5-5-5-5-5---5-5-5-5-5-5-5---5-5-5-5-5-5-5---5-5-5-5-5-5-5-|
|----------------------------------------------------------------|

Guitar 2
|------------------------------------------------------------------|
|------------------------------------------------------------------|
|--14-14-14-14-14-14-14---17-17-17-17-17-17-17---------------------|
|--xx-xx-xx-xx-xx-xx-xx---xx-xx-xx-xx-xx-xx-xx---------------------|
|--12-12-12-12-12-12-12---15-15-15-15-15-15-15---------------------|
|------------------------------------------------------------------|

VERSE
Guitar 1
|-------------------------------------------------------------------------|
|-------------------------------------------------------------------------|
|-77777777777777---77777777\555---5555555---9999999---7777777/9-9-10-9-9-9|
|-xxxxxxxxxxxxxx---xxxxxxxx\xxx---xxxxxxx---xxxxxxx---xxxxxxx/9-9-10-9-9-9|
|-55555555555555---55555555\333---3333333---7777777---5555555/7-7-8--7-7-7|
|-------------------------------------------------------------------------|
[ Tab from: http://www.guitaretab.com/r/rise-against/191681.html ]
Guitar 2
|--------------------------------
|--------------------------------
|-77777777777777-----------------
|-77777777777777---888888888888--
|-55555555555555---888888888888--
|------------------666666666666--
  ..............   ............ 

--------------------------------------------------------------|
--------------------------------------------------------------|
-10101010101010-------------------12121212121212-9-9-10-9-9-9-|
-10101010101010-------------------12121212121212-9-9-10-9-9-9-|
-8-8-8-8-8-8-8---10101010101010---10101010101010-7-7-8--7-7-7-|
-----------------8-8-8-8-8-8-8--------------------------------|
 . . . . . . .   . . . . . . .    . . . . . . .


PRE-CHORUS PART I
Guitar 1
|-------------------------------------------------------------------|
|-------------------------------------------------------------------|
|-7-7-7-7-7-7-7-7-7-7-7-7-7-7-7-7---------------------------5-5-5-5-|
|-7-7-7-7-7-7-7-7-7-7-7-7-7-7-7-7---8-8-8-8-7-7-7-7-5-5-5-5-5-5-5-5-|
|-5-5-5-5-5-5-5-5-5-5-5-5-5-5-5-5---8-8-8-8-7-7-7-7-5-5-5-5-3-3-3-3-|
|-----------------------------------6-6-6-6-5-5-5-5-3-3-3-3---------|



PRE-CHORUS PART II
Guitar 1
|-------------------------------------------------------------------|
|-------------------------------------------------------------------|
|-7-7-7-7-7-7-7-7-7-7-7-7-7-7-7-7-----------------------------------|
|-7-7-7-7-7-7-7-7-7-7-7-7-7-7-7-7---8-8-8-8-7-7-7-7-5-5-5-5-5-5-5-5-|
|-5-5-5-5-5-5-5-5-5-5-5-5-5-5-5-5---8-8-8-8-7-7-7-7-5-5-5-5-5-5-5-5-|
|-----------------------------------6-6-6-6-5-5-5-5-3-3-3-3-3-3-3-3-|


PRE-CHORUS PART III
Guitar 1
|----------------------------------------------------------------|
|----------------------------------------------------------------|
|----------------------------------------------------------------|
|-3--3-3-3-3-3---5--5-5-5-5-5-5-5---8-8-8-8-7-7-7-7-5------------|
|-3--3-3-3-3-3---5--5-5-5-5-5-5-5---8-8-8-8-7-7-7-7-5------------|
|-1--1-1-1-1-1---3--3-3-3-3-3-3-3---6-6-6-6-5-5-5-5-3------------|


CHORUS
Guitar 1
|-----------------------------------------------------------------------|
|-----------------------------------------------------------------------|
|-7-7-7-7-7-7-7-7---------------------5-5-5-5-5-5-5-5-------------------|
|-7-7-7-7-7-7-7-7---3-3-3-3-3-3-3-3---5-5-5-5-5-5-5-5---8-8-8-8-8-8-8-8-|
|-5-5-5-5-5-5-5-5---3-3-3-3-3-3-3-3---3-3-3-3-3-3-3-3---8-8-8-8-8-8-8-8-|
|-------------------1-1-1-1-1-1-1-1---------------------6-6-6-6-6-6-6-6-|

Guitar 2
|-----------------------------
|-10-10-------10-10-----------
|-------10-10-------10-10-----
|-----------------------------     repeat
|-----------------------------
|-----------------------------



SOLO
Guitar 1
|------------------------------------------------------------------------------------------|
|------------------------------------------------------------------------------------------|
|-10-10-10-12-12-12-14-14--14-14-14-15-15-15-17-17\12-12-12-14-14-14-12-12--12s-10s-12s-10-|
|-xx-xx-xx-xx-xx-xx-xx-xx--xx-xx-xx-xx-xx-xx-xx-xx\xx-xx-xx-xx-xx-xx-xx-xx--xs--xs--xs--x--|
|-8--8--8--10-10-10-12-12--12-12-12-13-13-13-15-15\10-10-10-12-12-12-10-10--10s-8s--10s-8--|
|------------------------------------------------------------------------------------------|

Guitar 2
|-----------------------------------------------------------------------|
|-----------------------------------------------------------------------|
|-6-6-6-6-6-6-6-6---------------------4-4-4-4-4-4-4-4-------------------|
|-6-6-6-6-6-6-6-6---2-2-2-2-2-2-2-2---4-4-4-4-4-4-4-4---7-7-7-7-7-7-7-7-|
|-4-4-4-4-4-4-4-4---2-2-2-2-2-2-2-2---2-2-2-2-2-2-2-2---7-7-7-7-7-7-7-7-|
|-------------------0-0-0-0-0-0-0-0---------------------5-5-5-5-5-5-5-5-|


Guitar 1
---------------------------------------------------------------------------------------------------|
---------------------------------------------------------------------------------------------------|
-10-10-10-12-12-12-14-14--14-14-14-15-15-15-17-17\10-10-10-10-10-10-10-12----10-10-10-10-10-10-10--|
-xx-xx-xx-xx-xx-xx-xx-xx--xx-xx-xx-xx-xx-xx-xx-xx\xx-xx-xx-xx-xx-xx-xx-xx----xx-xx-xx-xx-xx-xx-xx--|
-8--8--8--10-10-10-12-12--12-12-12-13-13-13-15-15\8-8-8-8--8--8--8--10-8--8--8--8--8--8--8--8--8---|
---------------------------------------------------------------------------------------------------|


Guitar 2
|-----------------------------------------------------------------------|
|-----------------------------------------------------------------------|
|-6-6-6-6-6-6-6-6---------------------4-4-4-4-4-4-4-4-------------------|
|-6-6-6-6-6-6-6-6---2-2-2-2-2-2-2-2---4-4-4-4-4-4-4-4---7-7-7-7-7-7-7-7-|
|-4-4-4-4-4-4-4-4---2-2-2-2-2-2-2-2---2-2-2-2-2-2-2-2---7-7-7-7-7-7-7-7-|
|-------------------0-0-0-0-0-0-0-0---------------------5-5-5-5-5-5-5-5-|



(Bass)


CHORUS
Guitar 1
|-----------------------------------------------------------------------|
|-----------------------------------------------------------------------|
|-7-7-7-7-7-7-7-7---------------------5-5-5-5-5-5-5-5-------------------|
|-7-7-7-7-7-7-7-7---3-3-3-3-3-3-3-3---5-5-5-5-5-5-5-5---8-8-8-8-8-8-8-8-|
|-5-5-5-5-5-5-5-5---3-3-3-3-3-3-3-3---3-3-3-3-3-3-3-3---8-8-8-8-8-8-8-8-|
|-------------------1-1-1-1-1-1-1-1---------------------6-6-6-6-6-6-6-6-|

Guitar 2
|-----------------------------|
|-10-10-------10-10-----------|
|-------10-10-------10-10-----|
|-----------------------------|     repeat
|-----------------------------|
|-----------------------------|
Related for The Good Left Undone tab