Song name
# A B C D E F G H I J K L M N O P Q R S T U V W X Y Z

Rise Against - State Of The Union tab

   Band : Rise Against
   Song : State of the union
   Album : Siren song of the counter culture


 ( Just_Drop_Dead@windowslive.com . If you have questions or problems , i can help you . )








e|-------------------------------------------------------------------------|
B|-------------------------------------------------------------------------|
G|-------------------------------------------------------------------------|
D|---2222333344445555-2222333344445555-2222333344445555-2222333344445555---|
A|---2222333344445555-2222333344445555-2222333344445555-2222333344445555---|
E|---0000111122223333-0000111122223333-0000111122223333-0000111122223333---|



e|-----------------------------|
B|-----------------------------|
G|-----------------------------|
D|---2-2--5--7-7--5--7-7-5-5---|
A|---2-2--3--7-7--5--7-7-5-5---|
E|---0-0-----5-5--3--5-5-3-3---|



e|-------------------------------------------------------|
B|-------------------------------------------------------|
G|-------------------------------------------------------|
D|---2-2--5--7-7--5--7-7-7-7---2-2--5--7-7--5--7-7-5-5---|
A|---2-2--3--7-7--5--7-7-7-7---2-2--3--7-7--5--7-7-5-5---|
E|---0-0-----5-5--3--5-5-5-5---0-0-----5-5--3--5-5-3-3---|


e|----------------------|
B|----------------------|
G|----------------------|
D|---------------2~-2---|
A|---------------2~-2---|
E|---3-0-3-6-5-3-0~-0---|



e|-----------------------------|
B|-----------------------------|
G|-----------------------------|
D|---2-2--5--7-7--5--7-7-5-5---|
A|---2-2--3--7-7--5--7-7-5-5---|
E|---0-0-----5-5--3--5-5-3-3---|



e|-------------------------------------------------------|
B|-------------------------------------------------------|
G|-------------------------------------------------------|
D|---2-2--5--7-7--5--7-7-7-7---2-2--5--7-7--5--7-7-5-5---|
A|---2-2--3--7-7--5--7-7-7-7---2-2--3--7-7--5--7-7-5-5---|
E|---0-0-----5-5--3--5-5-5-5---0-0-----5-5--3--5-5-3-3---|


e|----------------------|
B|----------------------|
G|----------------------|
D|---------------2~-2---|
A|---------------2~-2---|
E|---3-0-3-6-5-3-0~-0---|





Verse
e|----------------------------------------------------|
B|----------------------------------------------------|
G|----------------------------------------------------|
D|---4-4---4-4---4/5-7-5--4-4---4-4---55555555--4-4---|
A|---2-2---2-2---2/3-5-3--2-2---2-2---33333333--2-2---|
E|----------------------------------------------------|


If We're the flagship of peace and prosperity

We're taking on water and about to fuckin' sink

e|----------------------------------------------|
B|----------------------------------------------|
G|---777777777777---------7777---4/5-7-5--4-4---|
D|---555555555555---4-4---5555---2/3-5-3--2-2---|
A|------------------2-2-------------------------|
E|----------------------------------------------|


No one seems to notice, No one even blinks


e|---------------------------------------------------------------|
B|---------------------------------------------------------------|
G|---777777777777---------7777-----------------------------------|
D|---555555555555---4-4---5555---5-5-5-5-5-5-5-5-5-5-5-7-7-7-7---|
A|------------------2-2----------3-3-3-3-3-3-3-3-3-3-3-5-5-5-5---|
E|---------------------------------------------------------------|



The crew left the passengers to die under the sea

______________________________________________________________
Chorus : X2

e|-------------------------------------------------------|
B|-------------------------------------------------------|
G|-------------------------------------------------------|
D|---2-2--5--7-7--5--7-7-5-5---2-2--5--7-7--5--7-7-7-7---|
A|---2-2--3--7-7--5--7-7-5-5---2-2--3--7-7--5--7-7-7-7---|
E|---0-0-----5-5--3--5-5-3-3---0-0-----5-5--3--5-5-5-5---|


Countdown , to the very end,


(Ready aim, pull the trigger now)

e|---------------------------------------------|
B|---------------------------------------------|
G|---------------------------------------------|
D|---2-2--5--7-7--5--7-7-5-5---------------2---|
A|---2-2--3--7-7--5--7-7-5-5---------------2---|
E|---0-0-----5-5--3--5-5-3-3---3-0-3-6-5-3-0---|


Equality, an invitation that we wont extend

(In time you'll firmly secure your place in hell)

___________________________________________________________


e|----------------------------------------------------|
B|----------------------------------------------------|
G|----------------------------------------------------|
D|---4-4---4-4---4/5-7-5--4-4---4-4---55555555--4-4---|
A|---2-2---2-2---2/3-5-3--2-2---2-2---33333333--2-2---|
E|----------------------------------------------------|


State of the union address , reads war torn country still a mess


e|----------------------------------------------|
B|----------------------------------------------|
G|---777777777777---------7777---4/5-7-5--4-4---|
D|---555555555555---4-4---5555---2/3-5-3--2-2---|
A|------------------2-2-------------------------|
E|----------------------------------------------|


the words: power, death, and distorted truth


e|---------------------------------------------------------------|
B|---------------------------------------------------------------|
G|---777777777777---------7777-----------------------------------|
D|---555555555555---4-4---5555---5-5-5-5-5-5-5-5-5-5-5-7-7-7-7---|
A|------------------2-2----------3-3-3-3-3-3-3-3-3-3-3-5-5-5-5---|
E|---------------------------------------------------------------|


Are read between the lines of the red, white, and blue



Chorus :

e|-------------------------------------------------------|
B|-------------------------------------------------------|
G|-------------------------------------------------------|
D|---2-2--5--7-7--5--7-7-5-5---2-2--5--7-7--5--7-7-7-7---|
A|---2-2--3--7-7--5--7-7-5-5---2-2--3--7-7--5--7-7-7-7---|
E|---0-0-----5-5--3--5-5-3-3---0-0-----5-5--3--5-5-5-5---|


Countdown , to the very end,



e|---------------------------------------------|
B|---------------------------------------------|
G|---------------------------------------------|
D|---2-2--5--7-7--5--7-7-5-5---------------2---|
A|---2-2--3--7-7--5--7-7-5-5---------------2---|
E|---0-0-----5-5--3--5-5-3-3---3-0-3-6-5-3-0---|


Equality, an invitation that we wont extend




e|-------------------------------------------------------|
B|-------------------------------------------------------|
G|-------------------------------------------------------|
D|---2-2--5--7-7--5--7-7-5-5---2-2--5--7-7--5--7-7-7-7---|
A|---2-2--3--7-7--5--7-7-5-5---2-2--3--7-7--5--7-7-7-7---|
E|---0-0-----5-5--3--5-5-3-3---0-0-----5-5--3--5-5-5-5---|

Ready aim, pull the trigger now



e|------------------------------
B|-----------------------------|
G|-----------------------------|
D|---2-2--5--7-7--5--7-7-5-5---|
A|---2-2--3--7-7--5--7-7-5-5---|
E|---0-0-----5-5--3--5-5-3-3---|


In time you'll ...

 
e|---------------------------------------|------------------------------|
B|---------------------------------------|------------------------------|
G|---------------------------------------|------------------------------|
D|---------------------------------------|-5-2~--6-----7-----5---5-2~---|
A|---------------------------------------|-5-2~--8-----7-----5---5-2~---|
E|---3-0-3-6-5-3-3-0-3-6-5-3-3-0-3-6-5-0-|-3-0~--6-0-0-5-0-0-3-0-3-0~---|




...Firmly secure your place in hell


e|-------------------------------------------------------------|
B|-------------------------------------------------------------|
G|-------------------------------------------------------------|
D|---8-----7-----5---5-2~--8-----7-----5--2-5-7-8-5-2-5-5-2~---|
A|---8-----7-----5---5-2~--8-----7-----5--2-5-7-8-5-2-5-5-2~---|
E|---6-0-0-5-0-0-3-0-3-0~--6-0-0-5-0-0-3--0-3-5-6-3-0-3-3-0~---|


                                         your place in hell



e|--------------------------|
B|--------------------------|
G|--------------------------|
D|---8-----7-----5---5-2~---|
A|---8-----7-----5---5-2~---|
E|---6-0-0-5-0-0-3-0-3-0~---|






e|-------------------------------------------------------------|
B|-------------------------------------------------------------|
G|-------------------------------------------------------------|
D|---8-----7-----5---5-2~--8-----7-----5--2-5-7-8-5-2-5-5-2~---|
A|---8-----7-----5---5-2~--8-----7-----5--2-5-7-8-5-2-5-5-2~---|
E|---6-0-0-5-0-0-3-0-3-0~--6-0-0-5-0-0-3--0-3-5-6-3-0-3-3-0~---|


                                         your place in hell





e|--------------------------------------------------------------|
B|--------------------------------------------------------------|
G|--------------------------------------------------------------|
D|---8-----7-----5---5-2~--8-----7-----5---5-2~-8-----7-----5---|
A|---8-----7-----5---5-2~--8-----7-----5---5-2~-8-----7-----5---|
E|---6-0-0-5-0-0-3-0-3-0~--6-0-0-5-0-0-3-0-3-0~-6-0-0-5-0-0-3---|





Guilty, is what our graves will read, no year, no family, we did nothing (NOTHING)

to stop the murder of

e|--------------------------------------------|
B|--------------------------------------------|
G|--------------------------------------------|
D|---------------------------------------2~---|
A|---------------------------------------2~---|
E|---0-3-5-6-5-3-0-3-5-6-5-3-0-3-5-6-5-3-0~---|



Of people , just - like - us .



                                THE END 
Tap to rate this tab
# A B C D E F G H I J K L M N O P Q R S T U V W X Y Z