Song name
# A B C D E F G H I J K L M N O P Q R S T U V W X Y Z

Rise Against - Prayer Of The Refugee tab

RAN-Repeat as necessary
/-Slide down
\-Slide up
h-hammer on
p-pull off
pm-palm mute

Intro
------------------------|
-7-66-77-66-77-66-77-66-|
------------------------|   RAN
------------------------|
------------------------|
------------------------|
Verse 1
-------------------------|
-77-66-77-66-77-66-77-66-|
-------------------------|
-------------------------| RAN
-------------------------|
-------------------------|

----------|
-44-44444-|
----------|
----------|
----------|
----------|

Guitar 1
-----------------------------------------|
-----------------------------------------|
-----------4--4-4--4-6--6-6--6-6--6-6--6-|
-1--1-1--1-4--4-4--4-6--6-6--6-6--6-6--6-|
-1--1-1--1-2--2-2--2-4--4-4--4-6--6-6--6-|
-1--1-1--1---------------------6--6-6--6-|
Guitar 2
------------------------|
-7-66-77-66-77-66-77-66-|
------------------------|
------------------------|
------------------------|
------------------------|
Guitar 1
---------------------------------|
---------------------------------|
-----------4--4-4--4-6--6-6--6---|
-1--1-1--1-4--4-4--4-6--6-6--6-6-|
-1--1-1--1-2--2-2--2-4--4-4--4-6-|
-1--1-1--1---------------------6-|
Guitar 2
----------------------|
-77-66-77-66-77-66-44-|
----------------------|
----------------------|
----------------------|
----------------------|
Chorus
Guitar 1
--------------------    -------------------------------------|
--------------------    -------------------------------------|
--------------------    -------------------------------------|
-------------------- x3 -------------------------------------|
-6-4-6--6-4-6-9-6-4-    -11-11-11-11-9-9-9-9-8-8-8-8-9-9-9-9-|
--------------------    - -----------------------------------|
Guitar 2
------------------------|
------------------------|
-            6     4
-1     4     6     4
-1 x16 4 x16 4 x16 2 x16
-1     4----------------
Repeat Chorus twice
Guitar 1
---
---
---
-1-
-1-
-1-
Guitar 2 (same as Verse 1)
Guitar 1
----------------------------------------|
----------------------------------------|
----------------------------------------|
----------------------------------------|
-1--6-----9---11--1-6---2---4---6-66666-|
----------------------------------------|
Chorus (same as last)
Bridge
-----------------------------------------|
-----------------------------------------|
-----------------------------------------| x3
-----------------------------------------|
-----------------------------------------|
-6-pm66666666666666-4-pm.444444444444444-|

----------------------------------------|
----------------------------------------|
----------------------------------------|
----------------------------------------|
----------------------------------------|
-2-pm.2222222222222-1-pm.11111111111111-|
Guitar 1
--------------------|
--------------------|
-88888888-11-11-6-6-|
--------------------|
--------------------|
--------------------|
Guitar 2
----------|
----------|
--------6-|
-1---4--6-|
-1---4--4-|
-1---4----|
Solo
Guitar 1
----------------------    -----------------------|
----------------------    -----------------------|
-8-888888-10-10-11-11- x3 -8-88888888888888-6666-|
----------------------    -----------------------|
----------------------    -----------------------|
----------------------    -----------------------|
Guitar 2
--------------------------|
--------------------------|
-             6     6    -
-1-     4     6     4    -|
-1- x16 4 x16 4 x16 2 x16-|
-1-     4                -
Guitar 1
--------------------------------------------------------------------|
--------------------------------------------------------------------|
-15-11-15-16-15-13-15-11-15-16-15-13-13-13-13-13-13-11-15-15-15-15--|
--------------------------------------------------------------------|
--------------------------------------------------------------------|
--------------------------------------------------------------------|
Guitar 2
-------------------------|
-------------------------|
-            6     4-----|
-1     4     6     4-----|
-1 x16 4 x16 4 x16 2 x16-
-1     4                -
Guitar 1
---------------------|
-7-66-77-66-77-66-44-|
---------------------|
---------------------|
---------------------|
---------------------|
Guitar 2
---------------------|
---------------------|
---------------------|
-------------------1-|
-------------------1-|
-------------------1-|
Chorus
Both
---------------------------------------|
---------------------------------------|
---------------------------------------|
-1--1-1--1-1-1-1--1-4--4-4--4-4--4-4-4-|
-1--1-1--1-1-1-1--1-4--4-4--4-4--4-4-4-|
-1--1-1--1-1-1-1--1-4--4-4--4-4--4-4-4-|

-----------------------------------------|
-----------------------------------------|
-6--6-6--6-6--6-6--6-4--4-4--4-4--4-4--4-|
-6--6-6--6-6--6-6--6-4--4-4--4-4--4-4--4-|
-4--4-4--4-4--4-4--4-2--2-2--2-2--2-2--2-|
-----------------------------------------|
Guitar 1
------------------------------------------|
------------------------------------------|
-------------6----------------------------|
-1-----4-----6----------------------------|
-1 x16 4 x16 4 x16 11-11-9-9-8-8-9-9--9/6-|
-1-----4----------------------------------|
Guitar 2
---------------------------|
---------------------------|
-            6     4      -
-1     4     6     4     1-
-1 x16 4 x16 4 x16 2 x16 1-
-1     4                 1-

The End
Tap to rate this tab
 
# A B C D E F G H I J K L M N O P Q R S T U V W X Y Z