Song name
# A B C D E F G H I J K L M N O P Q R S T U V W X Y Z

Rise Against - Blood To Bleed Acoustic tab

This is My own Acoustic version of thIs Blood to Bleed.

It's Pretty simple. 

(INTRO)
|------------------------------------------|
|------------------------------------------|
|------------------------------------------|   Repeat twice      
|-----66---44--------------66---44---------|        
|-444----7----7-666----444----7----7-666---|
|------------------------------------------|

(VERSE ONE)
|------------------------------------------|
|------------------------------------------|
|------------------------------------------|         
|-----66---44--------------66---44---------|        
|-444----7----7-666----444----7----7-666---|
|------------------------------------------|

|------------------------xxxxxx--xxxxxx----|
|------------------------xxxxxx--xxxxxx----|
|------------------------xxxxxx--xxxxxx----|         
|-----66---44------------444444--666666----|        
|-444----7----7-666------444444--666666----|
|------------------------xxxxxx--xxxxxx----|

|------------------------------------------|
|------------------------------------------|
|------------------------------------------|         
|-----66---44--------------66---44---------|        
|-444----7----7-666----444----7----7-666---|
|------------------------------------------|

|-------------------------xxx--xxx--xxx----|
|-------------------------xxx--xxx--xxx----|
|-------------------------xxx--xxx--xxx----|         
|-----66---44-------------444--666--222----|
|-444----7----7-666-------444--666--222----|
|-------------------------xxx--xxx--xxx----|

(CHORUS)
|------------------------------------------|
|------------------------------------------|
|--666666---999999---333333---666666-------|
|--666666---999999---333333---xxxxxx-------|   Repeat Four times  
|--444444---777777---222222---444444-------|
|------------------------------------------|

(VERSE TWO)
|------------------------------------------|
|------------------------------------------|
|------------------------------------------|         
|-----66---44--------------66---44---------|        
|-444----7----7-666----444----7----7-666---|
|------------------------------------------|

|-------------------------xxx--xxx--xxx----|
|-------------------------xxx--xxx--xxx----|
|-------------------------xxx--xxx--xxx----|         
|-----66---44-------------444--666--222----|
|-444----7----7-666-------444--666--222----|
|-------------------------xxx--xxx--xxx----|

|------------------------------------------|
|------------------------------------------|
|------------------------------------------|         
|-----66---44--------------66---44---------|        
|-444----7----7-666----444----7----7-666---|
|------------------------------------------|

|-------------------------xxx--xxx--xxx----|
|-------------------------xxx--xxx--xxx----|
|-------------------------xxx--xxx--xxx----|         
|-----66---44-------------444--666--222----|
|-444----7----7-666-------444--666--222----|
|-------------------------xxx--xxx--xxx----|
|------------------------------------------|

(*ACOUSTIC* SOLO)
|------------------------------------------|
|--999999--------------------12-12-12-12---|
|---------6--8--9--11--9--8----------------|
|------------------------------------------|
|------------------------------------------|
|------------------------------------------|

|------------------------------------------|
|-----15-----------------------------------|
|--14----13--6--8--9--11-9999--11--9--8----|
|------------------------------------------|
|------------------------------------------|
|------------------------------------------|

|------------------------------------------|
|------------------------------------------|
|------------------------------------------|         
|-----66---44--------------66---44---------|        
|-444----7----7-666----444----7----7-666---|
|------------------------------------------|

|------------------------------------------|
|------------------------------------------|
|------------------------------------------|         
|-----66---44--------------66---44---------|        
|-444----7----7-666----444----7----7-666---|
|------------------------------------------|

The rest is basicly just repeating everything i put on here.

Have fun
Tap to rate this tab
# A B C D E F G H I J K L M N O P Q R S T U V W X Y Z