Song name
# A B C D E F G H I J K L M N O P Q R S T U V W X Y Z

Rise Against - Hero Of War tab


GUITAR 1
0:00 - 0:24
Bar       1                 2               3        4        5         6        7       8
|------------------|-7------------------|-0-----|--4----|---0------|-0------|-0-----|-0------|
|------------------|-7--9-slide-7-------|-0-----|--4----|---2------|-0------|-2-----|-0------|
|----9---9---9---9-|-8-------------9-8--|-1-----|--4----|---2------|-1------|-2-----|-1------|
|------9---9---9---|-9------------------|-2-x8--|--6-x8-|---2-x8---|-2-x8---|-2-x8--|-2-x8---|
|-0----------------|-9------------------|-2-----|--6----|---0------|-2------|-0-----|-2------|
|------------------|-7------------------|-0-----|--4----|---0------|-0------|-0-----|-0------|


GUITAR 1
0:25 - 0:31
Bar               9                                   10
|----------------------------------|---------------------------------------------|
|-----------4----------------------|------------4--------------------------------|
|-----------4----------------------|------------4--------------------------------|
|-----------4--x8------------------|------------4--x8----------------------------|
|-----------2----------------------|------------2--------------------------------|
|-----------2----------------------|------------2--------------------------------|


GUITAR 2
0:25 - 0:31
Bar             9                                     10
|----------------------------------|---------------------------------------------|
|----------------------------------|---------------------------------------------|
|--8--11--11--11--9--9--9--9-------|---8--8--8--8--9--9--8--9--------------------|
|--9--9---9---9---9--9--9--9-------|---9--9--9--9--9--9--9--9--------------------|
|----------------------------------|---------------------------------------------|
|----------------------------------|---------------------------------------------|

GUITAR 1
0:31 - 0:52
Bar    11       12       13       14       15       16       17
|---0------|--4-----|--0-----|--0-----|--0-----|--0-----|---------|
|---0------|--4-----|--2-----|--0-----|--2-----|--0-----|--4------|
|---1------|--4-----|--2-----|--1-----|--2-----|--1-----|--4------|
|---2-x8---|--6-x8--|--2-x8--|--2-x8--|--2-x8--|--2-x8--|--4-x8---|
|---2------|--6-----|--0-----|--2-----|--0-----|--2-----|--2------|
|---0------|--4-----|--0-----|--0-----|--0-----|--0-----|--2------|

GUITAR 1
0:52 - 0:59
Bar              18                                         19
|---------------------------------------|---------------4------------------------|
|-----------4---------------------------|---------------5------------------------|
|-----------4---------------------------|---------------6------------------------|
|-----------4--x8-----------------------|---------------6--x8--------------------|
|-----------2---------------------------|---------------4------------------------|
|-----------2---------------------------|---------------4------------------------|


GUITAR 2
0:52 - 0:59
Bar              18                                      19
|-------------------------------------|-----------------------------------|
|-------------------------------------|------------5----------------------|
|--4--6----6--8----8--9----9--11------|---------6-----6-------------------|
|-------------------------------------|------6-----------6----------------|
|--2--4----4--6----6--7----7---9------|---4-----------------4-------------|
|-------------------------------------|------------------------4----------|

GUITAR 1
0:59 - 1:05
Bar              20                         21                     22
|----------0-------------------|-------0--------------------|---------------|
|----------2-------------------|-------0--------------------|------4--------|
|----------2-------------------|-------1--------------------|------4--------|
|----------2--x8---------------|-------2--x8----------------|------4--x8----|
|----------0-------------------|-------2--------------------|------2--------|
|----------0-------------------|-------0--------------------|------2--------|





GUITAR 2
0:59 - 1:05
Bar              20                         21
|------------------------------|-----------------------------|
|--------------5---------------|-----------------------------|
|-----------6-----6------------|-----------1-----------------|
|--------7-----------7---------|--------2--------------------|
|-----7-----------------7------|-----2-----------------------|
|--5---------------------------|--0--------------------------|




GUITAR 1	
 1:05 - 1:18
Bar           23                        24                          25             26
|---------4-------------------|-----0--------------------|-----0-------------|-----------|
|---------5-------------------|-----2--------------------|-----1-------------|--4--------|
|---------6-------------------|-----2--------------------|-----2-------------|--4--just--|
|---------6--x8---------------|-----2--x8----------------|-----2--x8---------|--4--once--|
|---------4-------------------|-----0--------------------|-----0-------------|--2--------|
|---------4-------------------|-----0--------------------|-----0-------------|--2--------|



GUITAR 2
1:05 - 1:16
Bar          23                            24                       25
|-------------------------------|--------------------------|-------------------|
|-----------5-------------------|--------------5-----------|-------------------|
|--------6-----6----------------|-----------6-----6--------|------------1------|
|-----6------------6------------|--------7-----------7-----|---------2---------|
|--4------------------4---------|-----7-----------------7--|------2------------|
|------------------------4------|--5-----------------------|---0---------------|

GUITAR 1
1:18 - 1:38
Bar     27        28       29        30        31        32
|----0------|--4------|--0------|--0------|--0------|--0------|
|----1------|--4------|--2------|--0------|--2------|--0------|
|----2------|--4------|--2------|--1------|--2------|--1------|
|----2--x8--|--6--x8--|--2--x8--|--2--x8--|--2--x8--|--2--x8--|
|----0------|--6------|--0------|--2------|--0------|--2------|
|----0------|--4------|--0------|--0------|--0------|--0------|

GUITAR 1
1:38 - 1:45
Bar         33                             34
|---------------------------|---------------------------------|
|-------4-------------------|---4-----------------------------|
|-------4-------------------|---4-----------------------------|
|-------4--x8---------------|---4--x8-------------------------|
|-------2-------------------|---2-----------------------------|
|-------2-------------------|---2-----------------------------|

GUITAR 2	
1:38 - 1:45
Bar         33                           34
|---------------------------|---------------------------------|
|---------------------------|---------------------------------|
|--8--8--8--8--8--9--9--8---|--11--11--9--9--8--8--9--9-------|
|--9--9--9--9--9--9--9--9---|---9---9--9--9--9--9--9--9-------|
|---------------------------|---------------------------------|
|---------------------------|---------------------------------|


GUITAR 1
1:45 - 
Bar     35       36        37        38        39        40        41
|----0------|--4------|--0------|--0------|--0------|--0------|---------|
|----0------|--4------|--2------|--0------|--2------|--0------|--4------|
|----1------|--4------|--2------|--1------|--2------|--1------|--4------|
|----2--x8--|--6--x8--|--2--x8--|--2--x8--|--2--x8--|--2--x8--|--4--x8--|
|----2------|--6------|--0------|--2------|--0------|--2------|--2------|
|----0------|--4------|--0------|--0------|--0------|--0------|--2------|



GUITAR 1

Bar              42                                      43
|-------------------------------------|----------------4------------------|
|------------4------------------------|----------------5------------------|
|------------4------------------------|----------------6------------------|
|------------4--x8--------------------|----------------6--x8--------------|
|------------2------------------------|----------------4------------------|
|------------2------------------------|----------------4------------------|

GUITAR 2

Bar             42                                    43
|-------------------------------------|-----------------------------------|
|-------------------------------------|------------5----------------------|
|--4--6----6--8----8--9----9--11------|---------6-----6-------------------|
|-------------------------------------|------6-----------6----------------|
|--2--4----4--6----6--7----7---9------|---4-----------------4-------------|
|-------------------------------------|------------------------4----------|

GUITAR 1 

Bar           44                       45           46
|-------0------------------|--------0----------|---------|
|-------2------------------|--------0----------|--4------|
|-------2------------------|--------1----------|--4------|
|-------2--x8--------------|--------2--x8------|--4--x8--|
|-------0------------------|--------2----------|--2------|
|-------0------------------|--------0----------|--2------|

GUITAR 2

Bar         44                       45
|--------------------------|-------------------|
|--------------5-----------|-------------------|
|-----------6-----6--------|------------1------|
|--------7-----------7-----|---------2---------|
|-----7-----------------7--|------2------------|
|--5-----------------------|---0---------------|

GUITAR 1 

Bar  47              48                        49            50
|--4------|-------0------------------|--------0----------|---------|
|--5------|-------2------------------|--------0----------|--4------|
|--6------|-------2------------------|--------1----------|--4------|
|--6--x8--|-------2--x8--------------|--------2--x8------|--4--x8--|
|--4------|-------0------------------|--------2----------|--2------|
|--4------|-------0------------------|--------0----------|--2------|



GUITAR 2

Bar             47                         48                    49
|---------------------------|---------------------------|--------------------|
|------------5--------------|---------------5-----------|--------------------|
|--------6------6-----------|------------6-----6--------|-----------1--------|
|-----6------------6--------|---------7-----------7-----|--------2-----------|
|--4------------------4-----|------7-----------------7--|-----2--------------|
|------------------------4--|---5-----------------------|--0-----------------|

GUITAR 1

Bar     51                  52
|------------------|-7------------------|
|------------------|-7--9-slide-7-------|
|----9---9---9---9-|-8-------------9-8--|
|------9---9---9---|-9------------------|
|-0----------------|-9------------------|
|------------------|-7------------------|

GUITAR 1

Bar        53                          54
|--------------------------|---------------------------|
|--------------------------|---------------------------|
|--------1-----------1-----|--------4-----------4------|
|--------2-----------2-----|--------6-----------6------|
|--2--2--2--2--2--2--2--2--|--6--6--6--6--6--6--6--6---|
|--0--0--0--0--0--0--0--0--|--4--4--4--4--4--4--4--4---|

GUITAR 1

Bar         55                         56
|--------------------------|--------------------------|
|--------------------------|--------------------------|
|--------2-----------------|--------1-----------1-----|
|--------2-----------2-----|--------2-----------2-----|
|--0--0--0--2--2--2--2--2--|--2--2--2--2--2--2--2--2--|
|--0--0--0--0--0--0--0--0--|--0--0--0--0--0--0--0--0--|

GUITAR 1

Bar        57                             58
|--------------------------|--------0-----------0-----|
|--------------------------|--------0-----------0-----|
|--------2-----------2-----|--------1-----------1-----|
|--2-----2-----2-----2-----|--2-----2-----2-----2-----|
|--0--0--0--0--0--0--0--0--|--2--2--2--2--2--2--2--2--|
|--0--0--0--0--0--0--0--0--|--0--0--0--0--0--0--0--0--|


GUITAR 1

Bar            59                                60
|-----------------------------|-------------------------------------------|
|----------2------------------|------------2------------------------------|
|----------4------------------|------------4------------------------------|
|----------4--x8--------------|------------4--x8--------------------------|
|----------2------------------|------------2------------------------------|
|----------2------------------|------------2------------------------------|



GUITAR 2

Bar            59                                     60
|----------------------------------|---------------------------------------------|
|----------------------------------|---------------------------------------------|
|--8--11--11--11--9--9--9--9-------|---8--8--8--8--9--9--8--9--------------------|
|--9--9---9---9---9--9--9--9-------|---9--9--9--9--9--9--9--9--------------------|
|----------------------------------|---------------------------------------------|
|----------------------------------|---------------------------------------------|

GUITAR 1

Bar  61      62       63        64       65      66
|--0-----|--4----|---0------|-0------|-0-----|-0------|
|--0-----|--4----|---2------|-0------|-2-----|-0------|
|--1-----|--4----|---2------|-1------|-2-----|-1------|
|--2-x8--|--6-x8-|---2-x8---|-2-x8---|-2-x8--|-2-x8---|
|--2-----|--6----|---0------|-2------|-0-----|-2------|
|--0-----|--4----|---0------|-0------|-0-----|-0------|

GUITAR 2

Bar        61                           62
|--7-----7-----7-----7-----|--7------7------7------7------|
|-----5-----5-----5-----5--|-----4------4------4-------4--|
|--------------------------|------------------------------|
|--------------------------|------------------------------|
|--------------------------|------------------------------|
|--------------------------|------------------------------|

GUITAR 2

Bar          63                         64
|---7-----7-----7-----7-----|--7-----7------5-----4-----|
|------5-----5-----5-----5--|-----5-----5------5-----5--|
|---------------------------|---------------------------|
|---------------------------|---------------------------|
|---------------------------|---------------------------|
|---------------------------|---------------------------|

GUITAR 2

Bar         65                          66
|---5-----5-----5-----5-----|--4-----4-----4-----4-----|
|------5-----5-----5-----5--|-----5-----5-----5-----5--|
|---------------------------|--------------------------|
|---------------------------|--------------------------|
|---------------------------|--------------------------|
|---------------------------|--------------------------|

GUITAR 1

Bar           67                            68
|-------------------------------|----------------------|
|---------4---------------------|-----4----------------|
|---------4---------------------|-----4----------------|
|---------4--x8-----------------|-----4--x8------------|
|---------2---------------------|-----2----------------|
|---------2---------------------|-----2----------------|

GUITAR 2

Bar          67                                   68
|---7-----7-----7-----7------------|--7-------7-------5------4-----------|
|------5-----5-----5-----5---------|------5-------5-------5------5-------|
|----------------------------------|-------------------------------------|
|----------------------------------|-------------------------------------|
|----------------------------------|-------------------------------------|
|----------------------------------|-------------------------------------|

GUITAR 1

Bar     69           70                       71        72
|---4---------|-----------0----------|----0--------|---------|
|---5---------|-----------2----------|----0--------|---4-----|
|---6---------|-----------2----------|----1--------|---4-----|
|---6--x8-----|-----------2--x8------|----2--x8----|---4--x8-|
|---4---------|-----------0----------|----2--------|---2-----|
|---4---------|-----------0----------|----0--------|---2-----|

GUITAR 2

Bar         69                           70                    71
|----------------------------|--------------------------|---------------|
|-----------5----------------|--------------5-----------|---------------|
|--------6-----6-------------|-----------6-----6--------|-----------1---|
|-----6-----------6----------|--------7-----------7-----|--------2------|
|--4-----------------4-------|-----7-----------------7--|-----2---------|
|-----------------------4----|--5-----------------------|--0------------|


GUITAR 1

Bar        73           74        75       76
|-----4-----------|--0-------|---0----|-----------|
|-----5-----------|--2-------|---0----|---4-------|
|-----6-----------|--2-------|---1----|---4-------|
|-----6--x8-------|--2--x8---|---2----|---4--x8---|
|-----4-----------|--0-------|---2----|---2-------|
|-----4-----------|--0-------|---0----|---2-------|
GUITAR 2

Bar        73                             74                    75
|----------------------------|--------------------------|---------------|
|-----------5----------------|--------------5-----------|---------------|
|--------6-----6-------------|-----------6-----6--------|-----------1---|
|-----6-----------6----------|--------7-----------7-----|--------2------|
|--4-----------------4-------|-----7-----------------7--|-----2---------|
|-----------------------4----|--5-----------------------|--0------------|

GUITAR 1

Bar         77                        78                         79                 80
|-------------------------|--------------------------|-------------------------|--0------|
|-----------0-------------|--------------------------|-----------2-------------|--0------|
|--------1-----1----------|-----------5--------------|--------2-----2----------|--1------|
|-----2-----------2-------|--------6-----6-----------|-----2----------2-----2--|--2--x8--|
|--2-----------------2----|-----6-----------6-----6--|--0----------------0-----|--2------|
|-----------------------0-|--4-----------------4-----|-------------------------|--0------|



Tap to rate this tab
 
# A B C D E F G H I J K L M N O P Q R S T U V W X Y Z