Song name
# A B C D E F G H I J K L M N O P Q R S T U V W X Y Z

Rise Against - Torches tab

-------------------------------------------------------------------------------
			     TORCHES - Rise Against
-------------------------------------------------------------------------------
Tabbed by: le spoon
Email: mangoes_max@hotmail.co.uk

Tuning: Standard.

Intro part 1:
Guitar 1:
e|---------------------------------------------------------------------------|
B|---------------------------------------------------------------------------|
G|---------------------------------------------------------------------------|
D|-----9---9-8-9---8---4-4/6----------9---9-8-9---8---8-8\6------------------|
A|----11--11-9-11--9---6-6/7---------11--11-9-11--9---9-9\7------------------|
E|---------------------------------------------------------------------------|

Guitar 2:
e|---------------------------------------------------------------------------|
B|-----------------------2h4-----------------------2p0-----------------------|
G|---------------------------------------------------------------------------|
D|-6-6---------------------------6-6-----------------------------------------|
A|-6-6---------------------------6-6-----------------------------------------|
E|-4-4---------------------------4-4-----------------------------------------|

Guitar 1:
e|---------------------------------------------------------------------------|
B|---------------------------------------------------------------------------|
G|------------------------------4--4-4--4-4-4--6--6-6--6-6-6-----------------|
D|-----9---9-8-9---8---4-4/6----4--4-4--4-4-4--6--6-6--6-6-6-----------------|
A|----11--11-9-11--9---6-6/7----2--2-2--2-2-2--4--4-4--4-4-4-----------------|
E|---------------------------------------------------------------------------|

Guitar 2:
e|---------------------------------------------------------------------------|
B|-----------------------2h4-------------------------------------------------|
G|------------------------------4--4-4--4-4-4--6--6-6--6-6-6-----------------|
D|-6-6--------------------------4--4-4--4-4-4--6--6-6--6-6-6-----------------|
A|-6-6--------------------------2--2-2--2-2-2--4--4-4--4-4-4-----------------|
E|-4-4-----------------------------------------------------------------------|

Intro part 2:
Guitar 1:
e|---------------------------------------------------------------------------|
B|---------------------------------------------------------------------------|
G|---------------------------------------------------------------------------|
D|-----9---9-8-9---8---8-8/6----------9---9-8-9---8---8-8\6------------------|
A|----11--11-9-11--9---9-9/7---------11--11-9-11--9---9-9\7------------------|
E|---------------------------------------------------------------------------|

e|---------------------------------------------------------------------------|
B|---------------------------------------------------------------------------|
G|------------------------------4--4-4--4-4-4--6--6-6--6-6-6-----------------|
D|-----9---9-8-9---8---4-4/6----4--4-4--4-4-4--6--6-6--6-6-6-----------------|
A|----11--11-9-11--9---6-6/7----2--2-2--2-2-2--4--4-4--4-4-4-----------------|
E|---------------------------------------------------------------------------|
play twice.

Guitar 2:
e|---------------------------------------------------|
B|---------------------------------------------------|
G|---------------------------------------------------|
D|-666666666666666666666666666666666666666666666666--|
A|-666666666666666666666666666666666666666666666666--|
E|-444444444444444444444444444444444444444444444444--|

e|--------------------------------|
B|--------------------------------|
G|-4--4-4--4-4-4--6--6-6--6-6-6---|
D|-4--4-4--4-4-4--6--6-6--6-6-6---|
A|-2--2-2--2-2-2--4--4-4--4-4-4---|
E|--------------------------------|
play twice.

Verses:

Both Verses are the same, apart from the first one is palm muted.

Both Guitars:
e|---------------------------------------------------------------------------|
B|---------------------------------------------------------------------------|
G|------------------44444444-------------------------------------------------|
D|-6666666666666666-44444444-44444444--6666666666666666-22222222-44444444----|
A|-6666666666666666-22222222-44444444--6666666666666666-22222222-44444444----|
E|-4444444444444444----------22222222--4444444444444444-00000000-22222222----|

play twice.

Chorus:

Both Guitars:
e|---------------------------------------------------------------------------|
B|---------------------------------------------------------------------------|
G|--4----3-----------6----4----3-3-------------------------------------------|
D|--4----3----4-4-4--6----4----3-3-4------6--6--6-6-6-6--6--6-6-6------------|
A|--2----1----4-4-4--4----2----1-1-4------6--6--6-6-6-6--6--6-6-6------------|
E|------------2-2-2----------------2------4--4--4-4-4-4--4--4-4-4------------|

e|---------------------------------------------------------------------------|
B|---------------------------------------------------------------------------|
G|--4----3-----------6----4----6-6-10----------------------------------------|
D|--4----3----4-4-4--6----4----6-6-10---6----6--6-6-6-6--6--6-6-6------------|
A|--2----1----4-4-4--4----2----4-4-8----6----6--6-6-6-6--6--6-6-6------------|
E|------------2-2-2---------------------4----4--4-4-4-4--4--4-4-4------------|

e|---------------------------------------------------------------------------|
B|---------------------------------------------------------------------------|
G|--4----3-----------6----4----3-3-------------------------------------------|
D|--4----3----4-4-4--6----4----3-3-4------6--6--6-6-6-6--6--6-6-6------------|
A|--2----1----4-4-4--4----2----1-1-4------6--6--6-6-6-6--6--6-6-6------------|
E|------------2-2-2----------------2------4--4--4-4-4-4--4--4-4-4------------|

e|---------------------------------------------------------------------------|
B|---------------------------------------------------------------------------|
G|--4----3-----------6----4----6-6-10------------------------4---------------|
D|--4----3----4-4-4--6----4----6-6-10---6----6--66666666--2--4--4------------|
A|--2----1----4-4-4--4----2----4-4-8----6----6--66666666--2--2--4------------|
E|------------2-2-2---------------------4----4--44444444--0-----2------------|

Interlude:

part 1:
Guitar 1:
e|---------------------------------------------------------------------------|
B|---------------------------------------------------------------------------|
G|-----------------4-4-4-----------------4-4-4-----------------444333--------|
D|----6-6-6-6-6----4-4-4----4-4-4-4-4----4-4-4----6-6-6-6-6----444333--x--4--|
A|----6-6-6-6-6----2-2-2----4-4-4-4-4----2-2-2----6-6-6-6-6----222111--x--4--|
E|----4-4-4-4-4-------------2-2-2-2-2-------------4-4-4-4-4------------x--2--|

Guitar 2:
e|---------------------------------------------------------------------------|
B|----2020202020202020202020202020202020202020202020202020202020202020-------|
G|---------------------------------------------------------------------------|
D|------------------------------------------------------------------------4--|
A|------------------------------------------------------------------------4--|
E|------------------------------------------------------------------------4--|
Both play twice.

part 2:
Both Guitars:
e|---------------------------------------------------------------------------|
B|---------------------------------------------------------------------------|
G|------------444-------------444-------------444-333------------------------|
D|-66-666-666-444-444-444-444-444-666-666-666-444-333--x-4-------------------|
A|-66-666-666-222-444-444-444-222-666-666-666-222-111--x-4-------------------|
E|-44-444-444-----222-222-222-----444-444-444----------x-2-------------------|

Play twice.

part 3:
Guitar 1:
e|-----------------------------------|
B|----6--4--3-----------6--4--3--4---|
G|-------------4---------------------|
D|-----------------------------------|
A|-----------------------------------|
E|-----------------------------------|

Guitar 2:
e|-----------------------------------|
B|-----------------------------------|
G|----------15-----------------------|
D|-------------16-------------16-15--|
A|-----------------------------------|
E|-----------------------------------|
Play 4 times.

Outro:
part 1(final chorus):
Both Guitars:
e|---------------------------------------------------------------------------|
B|---------------------------------------------------------------------------|
G|--4----3-----------6----4----3-3-------------------------------------------|
D|--4----3----4-4-4--6----4----3-3-4------6--6--6-6-6-6--6--6-6-6------------|
A|--2----1----4-4-4--4----2----1-1-4------6--6--6-6-6-6--6--6-6-6------------|
E|------------2-2-2----------------2------4--4--4-4-4-4--4--4-4-4------------|

e|---------------------------------------------------------------------------|
B|---------------------------------------------------------------------------|
G|--4----3-----------6----4----6-6-10----------------------------------------|
D|--4----3----4-4-4--6----4----6-6-10---6----6--6-6-6-6--6--6-6-6------------|
A|--2----1----4-4-4--4----2----4-4-8----6----6--6-6-6-6--6--6-6-6------------|
E|------------2-2-2---------------------4----4--4-4-4-4--4--4-4-4------------|

e|---------------------------------------------------------------------------|
B|---------------------------------------------------------------------------|
G|--4----3-----------6----4----3-3-------------------------------------------|
D|--4----3----4-4-4--6----4----3-3-4------6--6--6-6-6-6--6--6-6-6------------|
A|--2----1----4-4-4--4----2----1-1-4------6--6--6-6-6-6--6--6-6-6------------|
E|------------2-2-2----------------2------4--4--4-4-4-4--4--4-4-4------------|

e|---------------------------------------------------------------------------|
B|---------------------------------------------------------------------------|
G|--4----3-----------6----4----6-6-10----------------------------------------|
D|--4----3----4-4-4--6----4----6-6-10---2--------------2222222222222222------|
A|--2----1----4-4-4--4----2----4-4-8----2--------------2222222222222222------|
E|------------2-2-2---------------------0--------------0000000000000000------|

part 2:
Guitar 1:
e|---------------------------------------------------------------------------|
B|---------------------------------------------------------------------------|
G|---------------------------------------------------------------------------|
D|-----9---9-8-9---8---8-8/6----------9---9-8-9---8---8-8\6------------------|
A|----11--11-9-11--9---9-9/7---------11--11-9-11--9---9-9\7------------------|
E|---------------------------------------------------------------------------|

e|---------------------------------------------------------------------------|
B|---------------------------------------------------------------------------|
G|------------------------------4--4-4--4-4-4--6--6-6--6-6-6-----------------|
D|-----9---9-8-9---8---4-4/6----4--4-4--4-4-4--6--6-6--6-6-6-----------------|
A|----11--11-9-11--9---6-6/7----2--2-2--2-2-2--4--4-4--4-4-4-----------------|
E|---------------------------------------------------------------------------|

Guitar 2:
e|---------------------------------------------------|
B|---------------------------------------------------|
G|---------------------------------------------------|
D|-666666666666666666666666666666666666666666666666--|
A|-666666666666666666666666666666666666666666666666--|
E|-444444444444444444444444444444444444444444444444--|

e|--------------------------------|
B|--------------------------------|
G|-4--4-4--4-4-4--6--6-6--6-6-6---|
D|-4--4-4--4-4-4--6--6-6--6-6-6---|
A|-2--2-2--2-2-2--4--4-4--4-4-4---|
E|--------------------------------|

part 3:
For this part, guitar 2 is the same as part 2.
Guitar 1:
e|---------------------------------------------------------------------------|
B|---------------------------------------------------------------------------|
G|----13--13-13--13-13-13-13--13-13--13-13-13-13--13-13-13-13-8--8-8--8-8-8--|
D----------------------------------------------------------------------------|
A|----11--11-11--11-11-11-11--11-11--11-11-11-11--11-11-11-11-6--6-6--6-6-6--|
E|---------------------------------------------------------------------------|

e|---------------------------------------------------------------------------|
B|---------------------------------------------------------------------------|
G|----16--16-16--16-16-16--18--18-18--18-18-18-------------------------------|
D|---------------------------------------------------------------------------|
A|----14--14-14--14-14-14--16--16-16--16-16-16-------------------------------|
E|---------------------------------------------------------------------------|


Finish on:

Guitar 1:
e|----------|
B|----------|
G|----13----|
D|----------|
A|----11----|
E|----------|

Guitar 2:
e|---------|
B|---------|
G|---------|
D|----6----|
A|----6----|
E|----4----|

Hope you enjoy. If you see any mistakes, my E - mail is at the top.
Tap to rate this tab
 
# A B C D E F G H I J K L M N O P Q R S T U V W X Y Z