Song name
# A B C D E F G H I J K L M N O P Q R S T U V W X Y Z

Rise Against - Whereabouts Unknown tab

Whereabouts Unknown
Rise Against
Appeal to Reason (2008)

Whereabouts Unknown: Written by Tim McIlrath, Joe Principe, Brandon Barnes,
and Zach Blair

GTR I - "Zach Blair" Eb Tuning (eb,Bb,Gb,Db,Ab,Eb)
GTR II - "Tim McIlrath" Eb Tuning (eb,Bb,Gb,Db,Ab,Eb)

Intro

   GTR I (Clean)
eb|-------------------------------------|
Bb|-----------------------7-------------|
Gb|-----------------7--------7--9-----9-|
Db|--------------9-----9-----------9----|
Ab|--7----------------------------------|
Eb|--0----------------------------------|
  |
  |GTR II (Clean)
eb|-------------------------------------|
Bb|-------------------------------------|
Gb|-------------------------------------|
Db|-------------------------------------|
Ab|--7----------------------------------|
Eb|--0----------------------------------|

   GTR I
eb|-------------------------------------|
Bb|-----------------------7-------------|
Gb|-----------------7--------7--9--7----|
Db|--7-----------7-----7--------------7-|
Ab|--5----------------------------------|
Eb|-------------------------------------|
  |
  |GTR II
eb|-------------------------------------|
Bb|-------------------------------------|
Gb|-------------------------------------|
Db|--7----------------------------------|
Ab|--5----------------------------------|
Eb|-------------------------------------|

   GTR I
eb|-------------------------------------|
Bb|-------------------------------------|
Gb|--------------------x--------x-------|
Db|--5-----------------5--------5-------|
Ab|--3-----------------0--------0-------|
Eb|--------------------5--------3-------|
  |
  |GTR II
eb|-------------------------------------|
Bb|-------------------------------------|
Gb|-------------------------------------|
Db|--5--------5-------------------------|
Ab|--3--------2--------0--------0-------|
Eb|--------------------5--------3-------|

   GTR I
eb|-------------------------------------|
Bb|-------------------------------------|
Gb|-----------------7----11--7--9--7/12-|
Db|--------------9-----9----------------|
Ab|-------------------------------------|
Eb|-------------------------------------|
  |
  |GTR II
eb|-------------------------------------|
Bb|-------------------------------------|
Gb|-------------------------------------|
Db|-------------------------------------|
Ab|-------------------------------------|
Eb|-------------------------------------|

   GTR I
eb|-------------------------------------|
Bb|-----------------------7-------------|
Gb|-11----------11-11--9--9--9--7--9--9-|
Db|--------------0--0--0--0--0--0--0--0-|
Ab|-------------------------------------|
Eb|-------------------------------------|
  |
  |GTR II
eb|-------------------------------------|
Bb|-------------------------------------|
Gb|-------------------------------------|
Db|--7----------------------------------|
Ab|--5----------------------------------|
Eb|-------------------------------------|

   GTR I
eb|-------------------------------------|
Bb|-------------------------------------|
Gb|--------------------x--------x-------|
Db|--5-----------------5--------5-------|
Ab|--3-----------------0--------0-------|
Eb|--------------------5--------3-------|
  |
  |GTR II
eb|-------------------------------------|
Bb|-------------------------------------|
Gb|-------------------------------------|
Db|--5--------5-------------------------|
Ab|--3--------2--------0--------0-------|
Eb|--------------------5--------3-------|

   GTR I
eb|-------------------------------------|
Bb|-------------------------------------|
Gb|--------------------x--------x-------|
Db|--5--------5--------5--------5-------|
Ab|--3--------2--------0--------0-------|
Eb|--------------------5--------3-------|
  |
  |GTR II (Distortion)
eb|-------------------------------------|
Bb|-------------------------------------|
Gb|-------------------------------------|
Db|---7-7-7-7-7-7-7-7-7-7-7-7-7-7-7-7-7-|
Ab|---5-5-5-5-5-5-5-5-5-5-5-5-5-5-5-5-5-|
Eb|-------------------------------------|
PM    . . . . . . . . . . . . .        

Verse

   GTR I
eb|-------------------------------------|
Bb|-------------------------------------|
Gb|-------------------------------------|
Db|-------------------------------------|
Ab|-------------------------------------|
Eb|-------------------------------------|
  |
  |GTR II
eb|-------------------------------------|
Bb|-------------------------------------|
Gb|-------------------------------------|
Db|-------------------------------------|
Ab|--7--7-------5--7--------------------|
Eb|--0--0--0-0--0--0--------------------|
PM         . .

   GTR I (Distortion)
eb|-------------------------------------|
Bb|-------------------------------------|
Gb|--9--9-------7--9--------------------|
Db|--x--x-------x--x--------------------|
Ab|--7--7-------5--7--------------------|
Eb|--0--0--0-0--0--0--0--0--0--0--0--0--|
PM|        . .        .  .  .  .  .  .
  |GTR II
eb|-------------------------------------|
Bb|-------------------------------------|
Gb|-------------------------------------|
Db|-------------------------------------|
Ab|--7--7-------5--7--------------------|
Eb|--0--0--0-0--0--0--0--0--0--0--0--0--|
PM         . .        .  .  .  .  .  .

   GTR I
eb|-------------------------------------|
Bb|-------------------------------------|
Gb|-7/9-9-------7--9--------------------|
Db|-x-x-x-------x--x--------------------|
Ab|-5/7-7-------5--7--------------------|
Eb|-0-0-0--0-0--0--0--0--0--0--0--0--0--|
PM|        . .        .  .  .  .  .  .
  |GTR II
eb|-------------------------------------|
Bb|-------------------------------------|
Gb|-------------------------------------|
Db|-------------------------------------|
Ab|-5h7-7-------5--7--------------------|
Eb|-0-0-0--0-0--0--0--0--0--0--0--0--0--|
PM         . .        .  .  .  .  .  .

   GTR I
eb|-------------------------------------|
Bb|-------------------------------------|
Gb|-------------------------------------|
Db|-------------------------------------|
Ab|--5--5-------5--7--7--7--7--7--7--7--|
Eb|--3--3--3-3--3--5--5--5--5--5--5--5--|
PM|        . .        .  .  .  .  .  .
  |GTR II
eb|-------------------------------------|
Bb|-------------------------------------|
Gb|-------------------------------------|
Db|-------------------------------------|
Ab|--5--5-------5--7--7--7--7--7--7--7--|
Eb|--3--3--3-3--3--5--5--5--5--5--5--5--|
PM         . .        .  .  .  .  .  .

   GTR I
eb|-------------------------------------|
Bb|-------------------------------------|
Gb|--9--9-------7--9--------------------|
Db|--x--x-------x--x--------------------|
Ab|--7--7-------5--7--------------------|
Eb|--0--0--0-0--0--0--0--0--0--0--0--0--|
PM|        . .        .  .  .  .  .  .
  |GTR II
eb|-------------------------------------|
Bb|-------------------------------------|
Gb|-------------------------------------|
Db|-------------------------------------|
Ab|--7--7-------5--7--------------------|
Eb|--0--0--0-0--0--0--0--0--0--0--0--0--|
PM         . .        .  .  .  .  .  .

   GTR I 
eb|-------------------------------------|
Bb|-------------------------------------|
Gb|--9--9-------7--9--------------------|
Db|--x--x-------x--x--------------------|
Ab|--7--7-------5--7--------------------|
Eb|--0--0--0-0--0--0--0--0--0--0--0--0--|
PM|        . .        .  .  .  .  .  .
  |GTR II
eb|-------------------------------------|
Bb|-------------------------------------|
Gb|-------------------------------------|
Db|-------------------------------------|
Ab|--7--7-------5--7--------------------|
Eb|--0--0--0-0--0--0--0--0--0--0--0--0--|
PM         . .        .  .  .  .  .  .

   GTR I
eb|-------------------------------------|
Bb|-------------------------------------|
Gb|-7/9-9-------7--9--------------------|
Db|-x-x-x-------x--x--------------------|
Ab|-5/7-7-------5--7--------------------|
Eb|-0-0-0--0-0--0--0--0--0--0--0--0--0--|
PM|        . .        .  .  .  .  .  .
  |GTR II
eb|-------------------------------------|
Bb|-------------------------------------|
Gb|-------------------------------------|
Db|-------------------------------------|
Ab|-5h7-7-------5--7--------------------|
Eb|-0-0-0--0-0--0--0--0--0--0--0--0--0--|
PM         . .        .  .  .  .  .  .

   GTR I
eb|-------------------------------------|
Bb|-------------------------------------|
Gb|-------------------------------------|
Db|-------------------------------------|
Ab|--5--5-------5--7--7--7--7--7--7--7--|
Eb|--3--3--3-3--3--5--5--5--5--5--5--5--|
PM|        . .        .  .  .  .  .  .
  |GTR II
eb|-------------------------------------|
Bb|-------------------------------------|
Gb|-------------------------------------|
Db|-------------------------------------|
Ab|--5--5-------5--7--7--7--7--7--7--7--|
Eb|--3--3--3-3--3--5--5--5--5--5--5--5--|
PM         . .        .  .  .  .  .  .

   GTR I
eb|-------------------------------------|
Bb|-------------------------------------|
Gb|--9--9-------7--9--9--9--9--9--9--9--|
Db|--x--x-------x--x--x--x--x--x--x--x--|
Ab|--7--7-------5--7--7--7--7--7--7--7--|
Eb|--0--0--0-0--0--0--0--0--0--0--0--0--|
PM|        . .                        
  |GTR II
eb|-------------------------------------|
Bb|-------------------------------------|
Gb|-------------------------------------|
Db|----------------9--9--9--9--9--9--9--|
Ab|--7--7-------5--7--7--7--7--7--7--7--|
Eb|--0--0--0-0--0--0--0--0--0--0--0--0--|
PM         . .                        

Pre Chorus

   GTR I
eb|-------------------------------------------------|
Bb|-------------------------------------------------|
Gb|--5--5--5--5--5--5--5--5--7--7--7--7--7--7--7--7-|
Db|--x--x--x--x--x--x--x--x--x--x--x--x--x--x--x--x-|
Ab|--3--3--3--3--3--3--3--3--5--5--5--5--5--5--5--5-|
Eb|-------------------------------------------------|
  |
  |GTR II
eb|-------------------------------------------------|
Bb|-------------------------------------------------|
Gb|-------------------------------------------------|
Db|--5-----5--5--5--5--5--5--7-----7--7--7--7--7--7-|
Ab|--3-----3--3--3--3--3--3--5-----5--5--5--5--5--5-|
Eb|-------------------------------------------------|

   GTR I
eb|-------------------------------------------------|
Bb|-------------------------------------------------|
Gb|--9--9--9--9--9--9--9--9-16----------14----------|
Db|--x--x--x--x--x--x--x--x--x-----------x----------|
Ab|--7--7--7--7--7--7--7--7-14----------12----------|
Eb|-------------------------------------------------|
  |
  |GTR II
eb|-------------------------------------------------|
Bb|-------------------------------------------------|
Gb|-------------------------------------------------|
Db|--9-----9--9--9--9--9--9--9-----------7----------|
Ab|--7-----7--7--7--7--7--7--7-----------5----------|
Eb|-------------------------------------------------|

   GTR I
eb|-------------------------------------------------|
Bb|-------------------------------------------------|
Gb|-12-12-12-12-12-12-12-12-12-12-12-12-12-12-12-12-|
Db|--x--x--x--x--x--x--x--x--x--x--x--x--x--x--x--x-|
Ab|-10-10-10-10-10-10-10-10-10-10-10-10-10-10-10-10-|
Eb|-------------------------------------------------|
  |
  |GTR II
eb|-------------------------------------------------|
Bb|-------------------------------------------------|
Gb|-------------------------------------------------|
Db|--5-----5--5--5--5--5--5--5--5--5--5--5--5--5--5-|
Ab|--3-----3--3--3--3--3--3--3--3--3--3--3--3--3--3-|
Eb|-------------------------------------------------|

   GTR I
eb|-------------------------------------------------|
Bb|-------------------------------------------------|
Gb|-14-14-14-14-14-14-14-14-14-14-14-14-14-14-14-14-|
Db|--x--x--x--x--x--x--x--x--x--x--x--x--x--x--x--x-|
Ab|-12-12-12-12-12-12-12-12-12-12-12-12-12-12-12-12-|
Eb|-------------------------------------------------|
  |
  |GTR II
eb|-------------------------------------------------|
Bb|-------------------------------------------------|
Gb|-------------------------------------------------|
Db|--7-----7--7--7--7--7--7--7--7--7--7--7--7--7--7-|
Ab|--5-----5--5--5--5--5--5--5--5--5--5--5--5--5--5-|
Eb|-------------------------------------------------|
PM         .  .  .  .  .  .  .  .  .  .  

Chorus

   GTR I
eb|-------------------------------------------------|
Bb|-------------------------------------------------|
Gb|--9--9--9--9--9--9--9--9--9--9--9--9--9--9--9--9-|
Db|--x--x--x--x--x--x--x--x--x--x--x--x--x--x--x--x-|
Ab|--7--7--7--7--7--7--7--7--7--7--7--7--7--7--7--7-|
Eb|-------------------------------------------------|
  |
  |GTR II
eb|-------------------------------------------------|
Bb|-------------------------------------------------|
Gb|-------------------------------------------------|
Db|--9--9--9--9--9--9--9--9--9--9--9--9--9--9--9--9-|
Ab|--7--7--7--7--7--7--7--7--7--7--7--7--7--7--7--7-|
Eb|-------------------------------------------------|

   GTR I
eb|-------------------------------------------------|
Bb|-------------------------------------------------|
Gb|--7--7--7--7--7--7--7--7--7--7--7--7--7--7--7--7-|
Db|--x--x--x--x--x--x--x--x--x--x--x--x--x--x--x--x-|
Ab|--5--5--5--5--5--5--5--5--5--5--5--5--5--5--5--5-|
Eb|-------------------------------------------------|
  |
  |GTR II
eb|-------------------------------------------------|
Bb|-------------------------------------------------|
Gb|-------------------------------------------------|
Db|--7--7--7--7--7--7--7--7--7--7--7--7--7--7--7--7-|
Ab|--5--5--5--5--5--5--5--5--5--5--5--5--5--5--5--5-|
Eb|-------------------------------------------------|

   GTR I
eb|-------------------------------------------------|
Bb|-------------------------------------------------|
Gb|-17-17-17-17-16-16-16-16-14-14-14-14-12-12-12-12-|
Db|--x--x--x--x--x--x--x--x--x--x--x--x--x--x--x--x-|
Ab|-15-15-15-15-14-14-14-14-12-12-12-12-10-10-10-10-|
Eb|-------------------------------------------------|
  |
  |GTR II
eb|-------------------------------------------------|
Bb|-------------------------------------------------|
Gb|-------------------------------------------------|
Db|--5--5--5--5--5--5--5--5--5--5--5--5--5--5--5--5-|
Ab|--3--3--3--3--3--3--3--3--3--3--3--3--3--3--3--3-|
Eb|-------------------------------------------------|

   GTR I
eb|-------------------------------------------------|
Bb|-------------------------------------------------|
Gb|--9--9--9--9--9--9--9--9--9--9--9--9--9--9--9--9-|
Db|--x--x--x--x--x--x--x--x--x--x--x--x--x--x--x--x-|
Ab|--7--7--7--7--7--7--7--7--7--7--7--7--7--7--7--7-|
Eb|-------------------------------------------------|
  |
  |GTR II
eb|-------------------------------------------------|
Bb|-------------------------------------------------|
Gb|-------------------------------------------------|
Db|--9--9--9--9--9--9--9--9--9--9--9--9--9--9--9--9-|
Ab|--7--7--7--7--7--7--7--7--7--7--7--7--7--7--7--7-|
Eb|-------------------------------------------------|

   GTR I
eb|-------------------------------------------------|
Bb|-------------------------------------------------|
Gb|--7--7--7--7--7--7--7--7--7--7--7--7--7--7--7--7-|
Db|--x--x--x--x--x--x--x--x--x--x--x--x--x--x--x--x-|
Ab|--5--5--5--5--5--5--5--5--5--5--5--5--5--5--5--5-|
Eb|-------------------------------------------------|
  |
  |GTR II
eb|-------------------------------------------------|
Bb|-------------------------------------------------|
Gb|-------------------------------------------------|
Db|--7--7--7--7--7--7--7--7--7--7--7--7--7--7--7--7-|
Ab|--5--5--5--5--5--5--5--5--5--5--5--5--5--5--5--5-|
Eb|-------------------------------------------------|

   GTR I
eb|-------------------------------------------------|
Bb|-------------------------------------------------|
Gb|-17-17-17-17-16-16-16-16-14-14-14-14-12-12-12-12-|
Db|--x--x--x--x--x--x--x--x--x--x--x--x--x--x--x--x-|
Ab|-15-15-15-15-14-14-14-14-12-12-12-12-10-10-10-10-|
Eb|-------------------------------------------------|
  |
  |GTR II
eb|-------------------------------------------------|
Bb|-------------------------------------------------|
Gb|-------------------------------------------------|
Db|--5--5--5--5--5--5--5--5--5--5--5--5--5--5--5--5-|
Ab|--3--3--3--3--3--3--3--3--3--3--3--3--3--3--3--3-|
Eb|-------------------------------------------------|

   GTR I
eb|-------------------------------------------------|
Bb|-------------------------------------------------|
Gb|-16-16-16-16-14-14-14-14-12-12-12-12-11-11-11-11-|
Db|--x--x--x--x--x--x--x--x--x--x--x--x--x--x--x--x-|
Ab|-14-14-14-14-12-12-12-12-10-10-10-10--9--9--9--9-|
Eb|-------------------------------------------------|
  |
  |GTR II
eb|-------------------------------------------------|
Bb|-------------------------------------------------|
Gb|-------------------------------------------------|
Db|--5--5--5--5--5--5--5--5--7--7--7--7--7--7--7--7-|
Ab|--5--5--5--5--5--5--5--5--5--5--5--5--5--5--5--5-|
Eb|--3--3--3--3--3--3--3--3-------------------------|

Verse 2

   GTR I 
eb|-------------------------------------|
Bb|-------------------------------------|
Gb|--9----------------------------------|
Db|--x----------------------------------|
Ab|--7----------------------------------|
Eb|-------------------------------------|
  |
  |GTR II
eb|-------------------------------------|
Bb|-------------------------------------|
Gb|-------------------------------------|
Db|--9----------------------------------|
Ab|--7----------------------------------|
Eb|-------------------------------------|

Hold note for 5 bars

   GTR I
eb|-------------------------------------|
Bb|-------------------------------------|
Gb|-------------------------------------|
Db|-------------------------------------|
Ab|----------------x\-------------------|
Eb|----------------x\-------------------|
  |
  |GTR II
eb|-------------------------------------|
Bb|-------------------------------------|
Gb|-------------------------------------|
Db|-------------------------------------|
Ab|--------------------------x\---------|
Eb|--------------------------x\---------|


   GTR I 
eb|-------------------------------------|
Bb|-------------------------------------|
Gb|--9--9-------7--9--------------------|
Db|--x--x-------x--x--------------------|
Ab|--7--7-------5--7--------------------|
Eb|--0--0--0-0--0--0--0--0--0--0--0--0--|
PM|        . .        .  .  .  .  .  .
  |GTR II
eb|-------------------------------------|
Bb|-------------------------------------|
Gb|-------------------------------------|
Db|-------------------------------------|
Ab|--7--7-------5--7--------------------|
Eb|--0--0--0-0--0--0--0--0--0--0--0--0--|
PM         . .        .  .  .  .  .  .

   GTR I
eb|-------------------------------------|
Bb|-------------------------------------|
Gb|-7/9-9-------7--9--------------------|
Db|-x-x-x-------x--x--------------------|
Ab|-5/7-7-------5--7--------------------|
Eb|-0-0-0--0-0--0--0--0--0--0--0--0--0--|
PM|        . .        .  .  .  .  .  .
  |GTR II
eb|-------------------------------------|
Bb|-------------------------------------|
Gb|-------------------------------------|
Db|-------------------------------------|
Ab|-5h7-7-------5--7--------------------|
Eb|-0-0-0--0-0--0--0--0--0--0--0--0--0--|
PM         . .        .  .  .  .  .  .

   GTR I
eb|-------------------------------------|
Bb|-------------------------------------|
Gb|-------------------------------------|
Db|-------------------------------------|
Ab|--5--5-------5--7--7--7--7--7--7--7--|
Eb|--3--3--3-3--3--5--5--5--5--5--5--5--|
PM|        . .        .  .  .  .  .  .
  |GTR II
eb|-------------------------------------|
Bb|-------------------------------------|
Gb|-------------------------------------|
Db|-------------------------------------|
Ab|--5--5-------5--7--7--7--7--7--7--7--|
Eb|--3--3--3-3--3--5--5--5--5--5--5--5--|
PM         . .        .  .  .  .  .  .

   GTR I
eb|-------------------------------------|
Bb|-------------------------------------|
Gb|--9--9-------7--9--9--9--9--9--9--9--|
Db|--x--x-------x--x--x--x--x--x--x--x--|
Ab|--7--7-------5--7--7--7--7--7--7--7--|
Eb|--0--0--0-0--0--0--0--0--0--0--0--0--|
PM|        . .                        
  |GTR II
eb|-------------------------------------|
Bb|-------------------------------------|
Gb|-------------------------------------|
Db|----------------9--9--9--9--9--9--9--|
Ab|--7--7-------5--7--7--7--7--7--7--7--|
Eb|--0--0--0-0--0--0--0--0--0--0--0--0--|
PM         . .                        

Pre Chorus

   GTR I
eb|-------------------------------------------------|
Bb|-------------------------------------------------|
Gb|--5--5--5--5--5--5--5--5--7--7--7--7--7--7--7--7-|
Db|--x--x--x--x--x--x--x--x--x--x--x--x--x--x--x--x-|
Ab|--3--3--3--3--3--3--3--3--5--5--5--5--5--5--5--5-|
Eb|-------------------------------------------------|
  |
  |GTR II
eb|-------------------------------------------------|
Bb|-------------------------------------------------|
Gb|-------------------------------------------------|
Db|--5-----5--5--5--5--5--5--7-----7--7--7--7--7--7-|
Ab|--3-----3--3--3--3--3--3--5-----5--5--5--5--5--5-|
Eb|-------------------------------------------------|

   GTR I
eb|-------------------------------------------------|
Bb|-------------------------------------------------|
Gb|--9--9--9--9--9--9--9--9-16----------14----------|
Db|--x--x--x--x--x--x--x--x--x-----------x----------|
Ab|--7--7--7--7--7--7--7--7-14----------12----------|
Eb|-------------------------------------------------|
  |
  |GTR II
eb|-------------------------------------------------|
Bb|-------------------------------------------------|
Gb|-------------------------------------------------|
Db|--9-----9--9--9--9--9--9--9-----------7----------|
Ab|--7-----7--7--7--7--7--7--7-----------5----------|
Eb|-------------------------------------------------|

   GTR I
eb|-------------------------------------------------|
Bb|-------------------------------------------------|
Gb|-12-12-12-12-12-12-12-12-12-12-12-12-12-12-12-12-|
Db|--x--x--x--x--x--x--x--x--x--x--x--x--x--x--x--x-|
Ab|-10-10-10-10-10-10-10-10-10-10-10-10-10-10-10-10-|
Eb|-------------------------------------------------|
  |
  |GTR II
eb|-------------------------------------------------|
Bb|-------------------------------------------------|
Gb|-------------------------------------------------|
Db|--5-----5--5--5--5--5--5--5--5--5--5--5--5--5--5-|
Ab|--3-----3--3--3--3--3--3--3--3--3--3--3--3--3--3-|
Eb|-------------------------------------------------|

   GTR I
eb|-------------------------------------------------|
Bb|-------------------------------------------------|
Gb|-14-14-14-14-14-14-14-14-14-14-14-14-14-14-14-14-|
Db|--x--x--x--x--x--x--x--x--x--x--x--x--x--x--x--x-|
Ab|-12-12-12-12-12-12-12-12-12-12-12-12-12-12-12-12-|
Eb|-------------------------------------------------|
  |
  |GTR II
eb|-------------------------------------------------|
Bb|-------------------------------------------------|
Gb|-------------------------------------------------|
Db|--7-----7--7--7--7--7--7--7--7--7--7--7--7--7--7-|
Ab|--5-----5--5--5--5--5--5--5--5--5--5--5--5--5--5-|
Eb|-------------------------------------------------|
PM         .  .  .  .  .  .  .  .  .  .  

Chorus

   GTR I
eb|-------------------------------------------------|
Bb|-------------------------------------------------|
Gb|--9--9--9--9--9--9--9--9--9--9--9--9--9--9--9--9-|
Db|--x--x--x--x--x--x--x--x--x--x--x--x--x--x--x--x-|
Ab|--7--7--7--7--7--7--7--7--7--7--7--7--7--7--7--7-|
Eb|-------------------------------------------------|
  |
  |GTR II
eb|-------------------------------------------------|
Bb|-------------------------------------------------|
Gb|-------------------------------------------------|
Db|--9--9--9--9--9--9--9--9--9--9--9--9--9--9--9--9-|
Ab|--7--7--7--7--7--7--7--7--7--7--7--7--7--7--7--7-|
Eb|-------------------------------------------------|

   GTR I
eb|-------------------------------------------------|
Bb|-------------------------------------------------|
Gb|--7--7--7--7--7--7--7--7--7--7--7--7--7--7--7--7-|
Db|--x--x--x--x--x--x--x--x--x--x--x--x--x--x--x--x-|
Ab|--5--5--5--5--5--5--5--5--5--5--5--5--5--5--5--5-|
Eb|-------------------------------------------------|
  |
  |GTR II
eb|-------------------------------------------------|
Bb|-------------------------------------------------|
Gb|-------------------------------------------------|
Db|--7--7--7--7--7--7--7--7--7--7--7--7--7--7--7--7-|
Ab|--5--5--5--5--5--5--5--5--5--5--5--5--5--5--5--5-|
Eb|-------------------------------------------------|

   GTR I
eb|-------------------------------------------------|
Bb|-------------------------------------------------|
Gb|-17-17-17-17-16-16-16-16-14-14-14-14-12-12-12-12-|
Db|--x--x--x--x--x--x--x--x--x--x--x--x--x--x--x--x-|
Ab|-15-15-15-15-14-14-14-14-12-12-12-12-10-10-10-10-|
Eb|-------------------------------------------------|
  |
  |GTR II
eb|-------------------------------------------------|
Bb|-------------------------------------------------|
Gb|-------------------------------------------------|
Db|--5--5--5--5--5--5--5--5--5--5--5--5--5--5--5--5-|
Ab|--3--3--3--3--3--3--3--3--3--3--3--3--3--3--3--3-|
Eb|-------------------------------------------------|

   GTR I
eb|-------------------------------------------------|
Bb|-------------------------------------------------|
Gb|--9--9--9--9--9--9--9--9--9--9--9--9--9--9--9--9-|
Db|--x--x--x--x--x--x--x--x--x--x--x--x--x--x--x--x-|
Ab|--7--7--7--7--7--7--7--7--7--7--7--7--7--7--7--7-|
Eb|-------------------------------------------------|
  |
  |GTR II
eb|-------------------------------------------------|
Bb|-------------------------------------------------|
Gb|-------------------------------------------------|
Db|--9--9--9--9--9--9--9--9--9--9--9--9--9--9--9--9-|
Ab|--7--7--7--7--7--7--7--7--7--7--7--7--7--7--7--7-|
Eb|-------------------------------------------------|

   GTR I
eb|-------------------------------------------------|
Bb|-------------------------------------------------|
Gb|--7--7--7--7--7--7--7--7--7--7--7--7--7--7--7--7-|
Db|--x--x--x--x--x--x--x--x--x--x--x--x--x--x--x--x-|
Ab|--5--5--5--5--5--5--5--5--5--5--5--5--5--5--5--5-|
Eb|-------------------------------------------------|
  |
  |GTR II
eb|-------------------------------------------------|
Bb|-------------------------------------------------|
Gb|-------------------------------------------------|
Db|--7--7--7--7--7--7--7--7--7--7--7--7--7--7--7--7-|
Ab|--5--5--5--5--5--5--5--5--5--5--5--5--5--5--5--5-|
Eb|-------------------------------------------------|

   GTR I
eb|-------------------------------------------------|
Bb|-------------------------------------------------|
Gb|-17-17-17-17-16-16-16-16-14-14-14-14-12-12-12-12-|
Db|--x--x--x--x--x--x--x--x--x--x--x--x--x--x--x--x-|
Ab|-15-15-15-15-14-14-14-14-12-12-12-12-10-10-10-10-|
Eb|-------------------------------------------------|
  |
  |GTR II
eb|-------------------------------------------------|
Bb|-------------------------------------------------|
Gb|-------------------------------------------------|
Db|--5--5--5--5--5--5--5--5--5--5--5--5--5--5--5--5-|
Ab|--3--3--3--3--3--3--3--3--3--3--3--3--3--3--3--3-|
Eb|-------------------------------------------------|

   GTR I
eb|-------------------------------------------------|
Bb|-------------------------------------------------|
Gb|-16-16-16-16-14-14-14-14-12-12-12-12-11-11-11-11-|
Db|--x--x--x--x--x--x--x--x--x--x--x--x--x--x--x--x-|
Ab|-14-14-14-14-12-12-12-12-10-10-10-10--9--9--9--9-|
Eb|-------------------------------------------------|
  |
  |GTR II
eb|-------------------------------------------------|
Bb|-------------------------------------------------|
Gb|-------------------------------------------------|
Db|--5--5--5--5--5--5--5--5--7--7--7--7--7--7--7--7-|
Ab|--5--5--5--5--5--5--5--5--5--5--5--5--5--5--5--5-|
Eb|--3--3--3--3--3--3--3--3-------------------------|

Bridge

   GTR I 
eb|-------------------------------------------------|
Bb|-------------------------------------------------|
Gb|--9----------------------------------------------|
Db|--x----------------------------------------------|
Ab|--7----------------------------------------------|
Eb|-------------------------------------------------|
  |
  |GTR II
eb|-------------------------------------------------|
Bb|-------------------------------------------------|
Gb|-------------------------------------------------|
Db|--9----------------------------------------------|
Ab|--7----------------------------------------------|
Eb|-------------------------------------------------|

   GTR I 
eb|-------------------------------------------------|
Bb|-------------------------------------------------|
Gb|-------------------------------------------------|
Db|-------------------------------------------------|
Ab|-------------------------------------------------|
Eb|-------------------------------------------------|
  |
  |GTR II
eb|-------------------------------------------------|
Bb|-------------------------------------------------|
Gb|-------------------------------------------------|
Db|-------------------------------------------------|
Ab|-------------------------------------------------|
Eb|-------------------------------------------------|

   GTR I 
eb|-------------------------------------------------|
Bb|-------------------------------------------------|
Gb|-------------------------------------------------|
Db|-------------------------------------------------|
Ab|-------------------------------------------------|
Eb|-------------------------------------------------|
  |
  |GTR II (Clean)
eb|-------------------------------------------------|
Bb|-------------------------------------------------|
Gb|-------------------------------------------------|
Db|-17----------------------------------------------|
Ab|-17----------------------------------------------|
Eb|-15----------------------------------------------|

   GTR I 
eb|-------------------------------------------------|
Bb|-------------------------------------------------|
Gb|-------------------------------------------------|
Db|-------------------------------------------------|
Ab|-------------------------------------------------|
Eb|-------------------------------------------------|
  |
  |GTR II
eb|-------------------------------------------------|
Bb|-------------------------------------------------|
Gb|-------------------------------------------------|
Db|-16----------------------------------------------|
Ab|-16----------------------------------------------|
Eb|-14----------------------------------------------|

   GTR I 
eb|-------------------------------------------------|
Bb|-------------------------------------------------|
Gb|-------------------------------------------------|
Db|-------------------------------------------------|
Ab|-------------------------------------------------|
Eb|-------------------------------------------------|
  |
  |GTR II
eb|-------------------------------------------------|
Bb|-------------------------------------------------|
Gb|-------------------------------------------------|
Db|-12----------------------------------------------|
Ab|-12----------------------------------------------|
Eb|-10----------------------------------------------|

   GTR I 
eb|-------------------------------------------------|
Bb|-------------------------------------------------|
Gb|---------------------------------------------9+b-|
Db|-------------------------------------------------|
Ab|-------------------------------------------------|
Eb|-------------------------------------------------|
  |
  |GTR II
eb|-------------------------------------------------|
Bb|-------------------------------------------------|
Gb|-------------------------------------------------|
Db|-11----------------------------------------------|
Ab|-11----------------------------------------------|
Eb|--9----------------------------------------------|

   GTR I 
eb|-------------------------------------------------|
Bb|-------------------------------------------------|
Gb|-12-12-12-12-12-12-12-12-11-11-11-11--9--9--9--9-|
Db|--x--x--x--x--x--x--x--x--x--x--x--x--x--x--x--x-|
Ab|-10-10-10-10-10-10-10-10--9--9--9--9--7--7--7--7-|
Eb|-------------------------------------------------|
  |
  |GTR II (Distortion)
eb|-------------------------------------------------|
Bb|-------------------------------------------------|
Gb|-------------------------------------------------|
Db|-12-12-12-12-12-12-12-12-12-12-12-12-12-12-12-12-|
Ab|-10-10-10-10-10-10-10-10-10-10-10-10-10-10-10-10-|
Eb|-------------------------------------------------|

   GTR I 
eb|-------------------------------------------------|
Bb|-------------------------------------------------|
Gb|-------------------------------------------------|
Db|-------------------------------------------------|
Ab|-------------------------------------------------|
Eb|-------------------------------------------------|
  |
  |GTR II
eb|-------------------------------------------------|
Bb|-------------------------------------------------|
Gb|-------------------------------------------------|
Db|-------------------------------------------------|
Ab|-------------------------------------------------|
Eb|--0-10-12--0-10-12--0-10-12--0-10-12--0-10-12-12-|
PM   .  .  .  .  .  .  .  .  .  .  .  .  .  .  .  .

   GTR I 
eb|-------------------------------------------------|
Bb|-------------------------------------------------|
Gb|-------------------------------------------------|
Db|-------------------------------------------------|
Ab|-------------------------------------------------|
Eb|-------------------------------------------------|
  |
  |GTR II
eb|-------------------------------------------------|
Bb|-------------------------------------------------|
Gb|-------------------------------------------------|
Db|-------------------------------------------------|
Ab|-------------------------------------------------|
Eb|--0-10-12--0-10-12--0-10-12--0-10-12--0-10-12-12-|
PM   .  .  .  .  .  .  .  .  .  .  .  .  .  .  .  .

   GTR I 
eb|-------------------------------------------------|
Bb|-------------------------------------------------|
Gb|-12-12-12-12-12-12-12-12-12-12-12-12-12-12-12-12-|
Db|--x--x--x--x--x--x--x--x--x--x--x--x--x--x--x--x-|
Ab|-10-10-10-10-10-10-10-10-10-10-10-10-10-10-10-10-|
Eb|-------------------------------------------------|
  |
  |GTR II
eb|-------------------------------------------------|
Bb|-------------------------------------------------|
Gb|-------------------------------------------------|
Db|-------------------------------------------------|
Ab|-------------------------------------------------|
Eb|--0-10-12--0-10-12--0-10-12--0-10-12--0-10-12-12-|
PM   .  .  .  .  .  .  .  .  .  .  .  .  .  .  .  .

   GTR I 
eb|-------------------------------------------------|
Bb|-------------------------------------------------|
Gb|-11-11-11-11-11-11-11-11-11-11-11-11-11-11-11-11-|
Db|--x--x--x--x--x--x--x--x--x--x--x--x--x--x--x--x-|
Ab|--9--9--9--9--9--9--9--9--9--9--9--9--9--9--9--9-|
Eb|-------------------------------------------------|
  |
  |GTR II
eb|-------------------------------------------------|
Bb|-------------------------------------------------|
Gb|-------------------------------------------------|
Db|-------------------------------------------------|
Ab|-------------------------------------------------|
Eb|--0-10-12--0-10-12--0-10-12--0-10-12--0-10-12-12-|
PM   .  .  .  .  .  .  .  .  .  .  .  .  .  .  .  .

   GTR I 
eb|-------------------------------------------------|
Bb|-------------------------------------------------|
Gb|--7--7--7--7--7--7--7--7--7--7--7--7--7--7--7--7-|
Db|--x--x--x--x--x--x--x--x--x--x--x--x--x--x--x--x-|
Ab|--5--5--5--5--5--5--5--5--5--5--5--5--5--5--5--5-|
Eb|-------------------------------------------------|
  |
  |GTR II
eb|-------------------------------------------------|
Bb|-------------------------------------------------|
Gb|-------------------------------------------------|
Db|-------------------------------------------------|
Ab|-------------------------------------------------|
Eb|--0-10-12--0-10-12--0-10-12--0-10-12--0-10-12-12-|
PM   .  .  .  .  .  .  .  .  .  .  .  .  .  .  .  .

   GTR I 
eb|-------------------------------------------------|
Bb|-------------------------------------------------|
Gb|--6--6--6--6--6--6--6--6--6--6--6--6--6b-6b-6b-6b|
Db|--x--x--x--x--x--x--x--x--x--x--x--x--x--x--x--x-|
Ab|--4--4--4--4--4--4--4--4--4--4--4--4--4--4--4--4-|
Eb|-------------------------------------------------|
  |
  |GTR II
eb|-------------------------------------------------|
Bb|-------------------------------------------------|
Gb|-------------------------------------------------|
Db|-------------------------------------------------|
Ab|-------------------------------------------------|
Eb|--0-10-12--0-10-12--0-10-12--0-10-12--0-10-12-12-|
PM   .  .  .  .  .  .  .  .  .  .  .  .  .  .  .  .

   GTR I 
eb|-------------------------------------------------|
Bb|-------------------------------------------------|
Gb|-12-12-12-12-12-12-12-12-12-12-12-12-12-12-12-12-|
Db|--x--x--x--x--x--x--x--x--x--x--x--x--x--x--x--x-|
Ab|-10-10-10-10-10-10-10-10-10-10-10-10-10-10-10-10-|
Eb|-------------------------------------------------|
  |
  |GTR II
eb|-------------------------------------------------|
Bb|-------------------------------------------------|
Gb|-------------------------------------------------|
Db|-12-12-12-12-12-12-12-12-12-12-12-12-12-12-12-12-|
Ab|-10-10-10-10-10-10-10-10-10-10-10-10-10-10-10-10-|
Eb|-------------------------------------------------|

   GTR I 
eb|-------------------------------------------------|
Bb|-------------------------------------------------|
Gb|-------------------------------------------------|
Db|-------------------------------------------------|
Ab|-------------------------------------------------|
Eb|-------------------------------------------------|
  |
  |GTR II
eb|-------------------------------------------------|
Bb|-------------------------------------------------|
Gb|-------------------------------------------------|
Db|-------------------------------------------------|
Ab|-------------------------------------------------|
Eb|--0-10-12--0-10-12--0-10-12--0-10-12--0-10-12-12-|
PM   .  .  .  .  .  .  .  .  .  .  .  .  .  .  .  .

   GTR I 
eb|-------------------------------------------------|
Bb|-------------------------------------------------|
Gb|-12-12-12-12-12-12-12-12-11-11-11-11-14-14-14-14-|
Db|--x--x--x--x--x--x--x--x--x--x--x--x--x--x--x--x-|
Ab|-10-10-10-10-10-10-10-10--9--9--9--9-12-12-12-12-|
Eb|-------------------------------------------------|
  |
  |GTR II
eb|-------------------------------------------------|
Bb|-------------------------------------------------|
Gb|-------------------------------------------------|
Db|-12-12-12-12-12-12-12-12-12-12-12-12-12-12-12-12-|
Ab|-10-10-10-10-10-10-10-10-10-10-10-10-10-10-10-10-|
Eb|-------------------------------------------------|

   GTR I 
eb|-------------------------------------------------|
Bb|-------------------------------------------------|
Gb|-------------------------------------------------|
Db|-------------------------------------------------|
Ab|-------------------------------------------------|
Eb|-------------------------------------------------|
  |
  |GTR II
eb|-------------------------------------------------|
Bb|-------------------------------------------------|
Gb|-------------------------------------------------|
Db|-------------------------------------------------|
Ab|-------------------------------------------------|
Eb|--0-10-12--0-10-12--0-10-12--0-10-12--0-10-12-12-|
PM   .  .  .  .  .  .  .  .  .  .  .  .  .  .  .  .

   GTR I 
eb|-------------------------------------------------|
Bb|-------------------------------------------------|
Gb|-12-12-12-12-12-12-12-12-12-12-12-12-12-12-12-12-|
Db|--x--x--x--x--x--x--x--x--x--x--x--x--x--x--x--x-|
Ab|-10-10-10-10-10-10-10-10-10-10-10-10-10-10-10-10-|
Eb|-------------------------------------------------|
  |
  |GTR II
eb|-------------------------------------------------|
Bb|-------------------------------------------------|
Gb|-------------------------------------------------|
Db|-12-12-12-12-12-12-12-12-12-12-12-12-12-12-12-12-|
Ab|-10-10-10-10-10-10-10-10-10-10-10-10-10-10-10-10-|
Eb|-------------------------------------------------|

   GTR I 
eb|-------------------------------------------------|
Bb|-------------------------------------------------|
Gb|-14-14-14-14-14-14-14-14-14-14-14-14-14b14b14b14b|
Db|--x--x--x--x--x--x--x--x--x--x--x--x--x--x--x--x-|
Ab|-12-12-12-12-12-12-12-12-12-12-12-12-12-12-12-12-|
Eb|-------------------------------------------------|
  |
  |GTR II
eb|-------------------------------------------------|
Bb|-------------------------------------------------|
Gb|-------------------------------------------------|
Db|-14-14-14-14-14-14-14-14-14-14-14-14-14-14-14-14-|
Ab|-12-12-12-12-12-12-12-12-12-12-12-12-12-12-12-12-|
Eb|-------------------------------------------------|

Chorus 2

   GTR I 
eb|-------------------------------------------------|
Bb|-------------------------------------------------|
Gb|--9----------------------------------------------|
Db|--x----------------------------------------------|
Ab|--7----------------------------------------------|
Eb|-------------------------------------------------|
  |
  |GTR II
eb|-------------------------------------------------|
Bb|-------------------------------------------------|
Gb|-------------------------------------------------|
Db|--9----------------------------------------------|
Ab|--7----------------------------------------------|
Eb|-------------------------------------------------|

   GTR I 
eb|-------------------------------------------------|
Bb|-------------------------------------------------|
Gb|-------------------------------------------------|
Db|-------------------------------------------------|
Ab|-------------------------------------------------|
Eb|-------------------------------------------------|
  |
  |GTR II
eb|-------------------------------------------------|
Bb|-------------------------------------------------|
Gb|-------------------------------------------------|
Db|--7----------------------------------------------|
Ab|--5----------------------------------------------|
Eb|-------------------------------------------------|

   GTR I
eb|-------------------------------------------------|
Bb|-------------------------------------------------|
Gb|-17-17-17-17-16-16-16-16-14-14-14-14-12-12-12-12-|
Db|--x--x--x--x--x--x--x--x--x--x--x--x--x--x--x--x-|
Ab|-15-15-15-15-14-14-14-14-12-12-12-12-10-10-10-10-|
Eb|-------------------------------------------------|
  |
  |GTR II
eb|-------------------------------------------------|
Bb|-------------------------------------------------|
Gb|-------------------------------------------------|
Db|--5--5--5--5--5--5--5--5--5--5--5--5--5--5--5--5-|
Ab|--3--3--3--3--3--3--3--3--3--3--3--3--3--3--3--3-|
Eb|-------------------------------------------------|

   GTR I
eb|-------------------------------------------------|
Bb|-------------------------------------------------|
Gb|--9--9--9--9--9--9--9--9--9--9--9--9--9--9--9--9-|
Db|--x--x--x--x--x--x--x--x--x--x--x--x--x--x--x--x-|
Ab|--7--7--7--7--7--7--7--7--7--7--7--7--7--7--7--7-|
Eb|-------------------------------------------------|
  |
  |GTR II
eb|-------------------------------------------------|
Bb|-------------------------------------------------|
Gb|-------------------------------------------------|
Db|--9--9--9--9--9--9--9--9--9--9--9--9--9--9--9--9-|
Ab|--7--7--7--7--7--7--7--7--7--7--7--7--7--7--7--7-|
Eb|-------------------------------------------------|

   GTR I
eb|-------------------------------------------------|
Bb|-------------------------------------------------|
Gb|--7--7--7--7--7--7--7--7--7--7--7--7--7--7--7--7-|
Db|--x--x--x--x--x--x--x--x--x--x--x--x--x--x--x--x-|
Ab|--5--5--5--5--5--5--5--5--5--5--5--5--5--5--5--5-|
Eb|-------------------------------------------------|
  |
  |GTR II
eb|-------------------------------------------------|
Bb|-------------------------------------------------|
Gb|-------------------------------------------------|
Db|--7--7--7--7--7--7--7--7--7--7--7--7--7--7--7--7-|
Ab|--5--5--5--5--5--5--5--5--5--5--5--5--5--5--5--5-|
Eb|-------------------------------------------------|

   GTR I
eb|-------------------------------------------------|
Bb|-------------------------------------------------|
Gb|-17-17-17-17-16-16-16-16-14-14-14-14-12-12-12-12-|
Db|--x--x--x--x--x--x--x--x--x--x--x--x--x--x--x--x-|
Ab|-15-15-15-15-14-14-14-14-12-12-12-12-10-10-10-10-|
Eb|-------------------------------------------------|
  |
  |GTR II
eb|-------------------------------------------------|
Bb|-------------------------------------------------|
Gb|-------------------------------------------------|
Db|--5--5--5--5--5--5--5--5--5--5--5--5--5--5--5--5-|
Ab|--3--3--3--3--3--3--3--3--3--3--3--3--3--3--3--3-|
Eb|-------------------------------------------------|

   GTR I
eb|-------------------------------------------------|
Bb|-------------------------------------------------|
Gb|-16-16-16-16-14-14-14-14-12-12-12-12-11-11-11-11-|
Db|--x--x--x--x--x--x--x--x--x--x--x--x--x--x--x--x-|
Ab|-14-14-14-14-12-12-12-12-10-10-10-10--9--9--9--9-|
Eb|-------------------------------------------------|
  |
  |GTR II
eb|-------------------------------------------------|
Bb|-------------------------------------------------|
Gb|-------------------------------------------------|
Db|--5--5--5--5--5--5--5--5--7--7--7--7--7--7--7--7-|
Ab|--5--5--5--5--5--5--5--5--5--5--5--5--5--5--5--5-|
Eb|--3--3--3--3--3--3--3--3-------------------------|

   GTR I
eb|-------------------------------------------------|
Bb|-------------------------------------------------|
Gb|--9--9--9--9--9--9--9--9--9--9--9--9--9--9--9--9-|
Db|--x--x--x--x--x--x--x--x--x--x--x--x--x--x--x--x-|
Ab|--7--7--7--7--7--7--7--7--7--7--7--7--7--7--7--7-|
Eb|-------------------------------------------------|
  |
  |GTR II
eb|-------------------------------------------------|
Bb|-------------------------------------------------|
Gb|-------------------------------------------------|
Db|--9--9--9--9--9--9--9--9--9--9--9--9--9--9--9--9-|
Ab|--7--7--7--7--7--7--7--7--7--7--7--7--7--7--7--7-|
Eb|-------------------------------------------------|

   GTR I
eb|-------------------------------------------------|
Bb|-------------------------------------------------|
Gb|--7--7--7--7--7--7--7--7--7--7--7--7--7--7--7--7-|
Db|--x--x--x--x--x--x--x--x--x--x--x--x--x--x--x--x-|
Ab|--5--5--5--5--5--5--5--5--5--5--5--5--5--5--5--5-|
Eb|-------------------------------------------------|
  |
  |GTR II
eb|-------------------------------------------------|
Bb|-------------------------------------------------|
Gb|-------------------------------------------------|
Db|--7--7--7--7--7--7--7--7--7--7--7--7--7--7--7--7-|
Ab|--5--5--5--5--5--5--5--5--5--5--5--5--5--5--5--5-|
Eb|-------------------------------------------------|

   GTR I
eb|-------------------------------------------------|
Bb|-------------------------------------------------|
Gb|-17-17-17-17-16-16-16-16-14-14-14-14-12-12-12-12-|
Db|--x--x--x--x--x--x--x--x--x--x--x--x--x--x--x--x-|
Ab|-15-15-15-15-14-14-14-14-12-12-12-12-10-10-10-10-|
Eb|-------------------------------------------------|
  |
  |GTR II
eb|-------------------------------------------------|
Bb|-------------------------------------------------|
Gb|-------------------------------------------------|
Db|--5--5--5--5--5--5--5--5--5--5--5--5--5--5--5--5-|
Ab|--3--3--3--3--3--3--3--3--3--3--3--3--3--3--3--3-|
Eb|-------------------------------------------------|

   GTR I
eb|-------------------------------------------------|
Bb|-------------------------------------------------|
Gb|-16-16-16-16-14-14-14-14-12-12-12-12-11-11-11-11-|
Db|--x--x--x--x--x--x--x--x--x--x--x--x--x--x--x--x-|
Ab|-14-14-14-14-12-12-12-12-10-10-10-10--9--9--9--9-|
Eb|-------------------------------------------------|
  |
  |GTR II
eb|-------------------------------------------------|
Bb|-------------------------------------------------|
Gb|-------------------------------------------------|
Db|--5--5--5--5--5--5--5--5--7--7--7--7--7--7--7--7-|
Ab|--5--5--5--5--5--5--5--5--5--5--5--5--5--5--5--5-|
Eb|--3--3--3--3--3--3--3--3-------------------------|

Outro

   GTR I
eb|-------------------------------------------------|
Bb|-------------------------------------------------|
Gb|--9--9--9--9--9--9--9--9--9--9--9--9--9--9--9--9-|
Db|--x--x--x--x--x--x--x--x--x--x--x--x--x--x--x--x-|
Ab|--7--7--7--7--7--7--7--7--7--7--7--7--7--7--7--7-|
Eb|-------------------------------------------------|
  |
  |GTR II
eb|-------------------------------------------------|
Bb|-------------------------------------------------|
Gb|-------------------------------------------------|
Db|--9--9--9--9--9--9--9--9--9--9--9--9--9--9--9--9-|
Ab|--7--7--7--7--7--7--7--7--7--7--7--7--7--7--7--7-|
Eb|-------------------------------------------------|

   GTR I
eb|-------------------------------------------------|
Bb|-------------------------------------------------|
Gb|--7--7--7--7--7--7--7--7--7--7--7--7--7--7--7--7-|
Db|--x--x--x--x--x--x--x--x--x--x--x--x--x--x--x--x-|
Ab|--5--5--5--5--5--5--5--5--5--5--5--5--5--5--5--5-|
Eb|-------------------------------------------------|
  |
  |GTR II
eb|-------------------------------------------------|
Bb|-------------------------------------------------|
Gb|-------------------------------------------------|
Db|--7--7--7--7--7--7--7--7--7--7--7--7--7--7--7--7-|
Ab|--5--5--5--5--5--5--5--5--5--5--5--5--5--5--5--5-|
Eb|-------------------------------------------------|

   GTR I
eb|-------------------------------------------------|
Bb|-------------------------------------------------|
Gb|-17-17-17-17-16-16-16-16-14-14-14-14-12-12-12-12-|
Db|--x--x--x--x--x--x--x--x--x--x--x--x--x--x--x--x-|
Ab|-15-15-15-15-14-14-14-14-12-12-12-12-10-10-10-10-|
Eb|-------------------------------------------------|
  |
  |GTR II
eb|-------------------------------------------------|
Bb|-------------------------------------------------|
Gb|-------------------------------------------------|
Db|--5--5--5--5--5--5--5--5--5--5--5--5--5--5--5--5-|
Ab|--3--3--3--3--3--3--3--3--3--3--3--3--3--3--3--3-|
Eb|-------------------------------------------------|

   GTR I
eb|-------------------------------------------------|
Bb|-------------------------------------------------|
Gb|-16----------------------12----------------------|
Db|--x-----------------------x----------------------|
Ab|-14----------------------10----------------------|
Eb|-------------------------------------------------|
  |
  |GTR II
eb|-------------------------------------------------|
Bb|-------------------------------------------------|
Gb|-------------------------------------------------|
Db|--5-----------------------7----------------------|
Ab|--5-----------------------5----------------------|
Eb|--3----------------------------------------------|

   GTR I 
eb|-------------------------------------------------|
Bb|-------------------------------------------------|
Gb|--9----------------------------------------------|
Db|--x----------------------------------------------|
Ab|--7----------------------------------------------|
Eb|-------------------------------------------------|
  |
  |GTR II
eb|-------------------------------------------------|
Bb|-------------------------------------------------|
Gb|-------------------------------------------------|
Db|--9----------------------------------------------|
Ab|--7----------------------------------------------|
Eb|-------------------------------------------------|



| x/ pickslide up
| x\ pickslide down
| /  slide up
| \  slide down
| h  hammer-on
| p  pull-off
| ~  vibrato
| +  harmonic
| x  Mute note
===============================================================================

Tap to rate this tab
 
# A B C D E F G H I J K L M N O P Q R S T U V W X Y Z