Song name
# A B C D E F G H I J K L M N O P Q R S T U V W X Y Z

Rise Against - Whereabouts Unknown tab

---------------------------------------------------------------------------
WHEREABOUTS UNKNOWN - Rise Against
---------------------------------------------------------------------------
Tabbed by:
Email:

Rise Against is the best band in the world.

Tuning:Eb

Ok, I'm gonna make this basic but as accurate as I can. So far no tab is exact for this 
so I'm gonna chart out as much of it as I can figure out.

Intro:
e|-----------------------------------------------------------------------|
B|-------------------------------------7---------------------------------|
G|---------------------------------7-----7--9-7--------------------------|
D|------------11----9---9---7~--7---7-----------7---5--7--5-----9~-------|
A|-7~--9-12-9----12--12-----5~----------------------3--5--3--2/-7~-------|
E|-0~-----------------------------------------------0--------0/-0~-------|

e|------------------------------------------------------------------------|
B|------------------------------------------------------------------------|
G|------------------------------------------------------------------------|
D|(9)--------11----9----9/12-11--11-11--9--------------9--9-7-5--7--7-5-4-|
A|(7)-9-12-9----12---12-------------------12-9-12-9/7--7---------5--------|
E|(0)--------------------------------------------------0---------0--------|

Pre-Verse:
e|------------------------------------------|
B|------------------------------------------|
G|------------------------------------------|
D|--5-5-4-5---------------------------------|
A|--7-7-5-7---------------------------------|
E|--0-0-0-0-00000000------------------------|
            ........
Verse: 2X
e|------------------------------------------------------------------------|
B|------------------------------------------------------------------------|
G|------------------------------------------------------------------------|
D|-5-5-4-5----------5-5-4-5----------4-4-5-4----------5-5-4-5-------------|
A|-7-7-5-7----------7-7-7-7----------5-5-3-5----------7-7-5-7-------------|
E|-0-0-0-0-00000000-0-0-0-0-00000000-0-0-0-0-00000000-0-0-0-0-00000000----|
           ........         ........         ........         ........

Pre-Chorus:
e|------------------------------------------------------------------------|
B|------------------------------------------------------------------------|
G|--12----11----12----14--12--11--9------7--------------------------------|
D|--x(x8)-x(x8)-x(x8)-x---x---x---x(x16)-x(x16)---------------------------|
A|--10----9-----10----12--10--9---7------5--------------------------------|
E|------------------------------------------------------------------------|

Chorus
e|------------------------------------------------------------------------|
B|------------------------------------------------------------------------|
G|--9-----7-----5-------9-----7------5-------9----7----9~-----------------|
D|--9(x16)7(x16)5(x16)--9(x16)7(x16)-5(x16)--9(x8)7(x8)9~-----------------|
A|--7-----5-----3-------7-----5------3-------7----5----7~-----------------|
E|------------------------------------------------------------------------|

Pre-Verse 2:
e|-----7*-(Alternate Picking Harmonics)-----------------------------------|
B|------------------------------------------------------------------------|
G|------------------------------------------------------------------------|
D|------------------------------------------------------------------------|
A|------------------------------------------------------------------------|
E|------------------------------------------------------------------------|

Verse 2:
Pre-Chorus 2:
Chorus 2:

Breakdown:         Even together we stand apart!
e|-----------------|------------------------------------------------------|
B|----12*----------|------------------------------------------------------|
G|(9)----12*-------|---12----11-------------------------------------------|
D|(9)-------12*----|---x(x8)-x(x8)----------------------------------------|
A|(7)----------12*-|---10----9------57-57-57-57-57-57-57-57---------------|
E|-----------------|---------------0--0--0--0--0--0--0--0-----------------|
                                   ........................
                                  2nd Guitar keeps this up
                                  through 2nd part of breakdown
Breakdown part 2:
e|--------------------------------------|
B|--------------------------------------|
G|--12----11----7-----5-----------------|
D|--x(x16)x(x16)x(x16)x(x16)------------|
A|--10----9-----5-----3-----------------|
E|--------------------------------------|
                        ^ Theres some weird slide or effect here
Back to part 1 of the breakdown 2 more times

Breakdown part 3:
e|-----------------------------------------------------------------------|
B|-----------------------------------------------------------------------|
G|--12----14~------------------------------------------------------------|
D|--x(x16)x(x16)---------------------------------------------------------|
A|--10----12~------------------------------------------------------------|
E|-----------------------------------------------------------------------|

A few variations in the breakdown riffs as they play through it,
you should easily be able to pick them up if you listen.
Hold the first two chords of the final chorus, then play it to the end.

Let me know what you think, comments or concerns.

| /  slide up
| \  slide down
| h  hammer-on
| p  pull-off
| ~  vibrato
| *  harmonic
| .  Mute note
===============================================================================
Tap to rate this tab
# A B C D E F G H I J K L M N O P Q R S T U V W X Y Z