Song name
# A B C D E F G H I J K L M N O P Q R S T U V W X Y Z

Rise Against - Strong Reaction tab

Strong Reaction By Rise Against (Pegboy cover)
Live @ the Metro In Chicago, Illinios.

I decided to TAB this version because it has 2 guitar parts.


INTRO / VERSE


GTR1

 e  |--------------------------------|
  B |--------------------------------|
  G |--6-6--6--6-6--6--6-6--6--6-----|
  D |--6-6--6--6-6--6--6-6--6--6-----|
  A |--4-4--4--4-4--4--4-4--4--4-----|
  E  |-------------------------------|
PM       .    .            .    .            .   .

     |-----------------------------|
     |-----------------------------|
     |-----------------------------|
     |--7-7--7--7-7--7--7-7--7--7--|
     |--7-7--7--7-7--7--7-7--7--7--|
     |--5-5--5--5-5--5--5-5--5--5--|
PM      .    .            .    .            .   .

     |--------------------------------------------------------|
     |--------------------------------------------------------|
     |--9-9--9--9-9--9--9-9--9--9--9-9--9--9-9--9--9-9--9--9--|
     |--9-9--9--9-9--9--9-9--9--9--9-9--9--9-9--9--9-9--9--9--|
     |--7-7--7--7-7--7--7-7--7--7--7-7--7--7-7--7--7-7--7--7--|
PM      .    .            .    .            .    .

GTR 2 Kicks Halfway through The Verse with....

|-////-------------------------------------|
|-////-------------------------------------|
|-////---6-666666--2-222222--4-444444------|
|-////---6-666666--2-222222--4-444444------|
|-////---4-444444--0-000000--2-222222------|
|-////-------------------------------------|


GTRS 1 + 2

|---------------|
|---------------|
|-4-4444444-----|
|-4-4444444-----|
|-2-2222222-----|
|---------------|
"And I want you back right now and..."

CHORUS

|-------------------------------------------|
|-------------------------------------------|
|--4-444444--2-222222-----------------------|
|--4-444444--2-222222--2-222222--4-444444---|
|--2-222222--0-000000--2-222222--4-444444---|
|----------------------0-000000--2-222222---|


That's it... plain and simple
Tap to rate this tab
# A B C D E F G H I J K L M N O P Q R S T U V W X Y Z