Song name
# A B C D E F G H I J K L M N O P Q R S T U V W X Y Z

Rise Against - Any Way You Want It tab

Tabbed by: Joshua Garcia (halofreak731@aol.com)

Tabs for the song: Anyway You Want It by Rise Against
Please rate and let me know if you have any corrections. Thank you.

No proper solo for Anyway You Want It by Rise Against, so I tabbed it out here.


Tuning: 1/2 Step Down (Eb Ab Db Gb Bb Eb)


Eb||--------------------------------------------------------|
Bb||--------------------------------------------------------|
Gb||-14b16---14b16--14b16---14---12-14--14b16--14p12-14p12--|
Db||--------------------------------------------------------|
Ab||--------------------------------------------------------|
Eb||--------------------------------------------------------|


Eb||---------------------------------------------|
Bb||---------------------------------------------|
Gb||--14p12--------------------------------------|
Db||--------14p12-14p12--------------------------|
Ab||--------------------14----12-10--------------|
Eb||-----------------------10-------12p10-12p10--|


Eb||----------------------------------------------------------------------|
Bb||----------------------------------------------------------------------|
Gb||-11-12-14--14b16---14-12-14---12-11--------11-12-11--14b16--14-12-----|
Db||-----------------------------------12---14------------------------12--|
Ab||----------------------------------------------------------------------|
Eb||----------------------------------------------------------------------|




Tablature Legend
----------------
 h   - hammer-on
 p   - pull-off
 b   - bend
 r   - release bend
 *   - pinch harmonic
 x   - mute note
 .   - palm mute
 /   - slide down
 \   - slide up
Tap to rate this tab
 
# A B C D E F G H I J K L M N O P Q R S T U V W X Y Z