Song name
# A B C D E F G H I J K L M N O P Q R S T U V W X Y Z

Rise Against - Collapse tab

----------------------------------------------------------------------------
		Collapse post-amerika - Rise Against
----------------------------------------------------------------------------
Tabbed by:English96
Email:English_828@hotmail.com

Tuning:standard


e|-------------------------------------------------------------------------|
B|-------------------------------------------------------------------------|
G|--4/6~~------------------------------------------------------------------|
D|-------------------------------------------------------------------------|
A|--2/4~~------------------------------------------------------------------|
E|-------------------------------------------------------------------------|

X6 Intro/Chorus
e|-------------------------------------------------------------------------|
B|-------------------------------------------------------------------------|
G|--6666646666999991111111111----------------------------------------------|
D|-------------------------------------------------------------------------|
A|--4444424444777779-9-9-9-9-----------------------------------------------|
E|-------------------------------------------------------------------------|

Solo comes in on the 4th time of Intro/Chorus riff
e|--9--9--9----------------------------9--9--9---12-14-16-14-11------------|
B|--12b12b12b-12p9---------------------12b12b12b---------------------------|
G|----------------10-9p8h9-9-11-9-8----------------------------------------|
D|----------------------------------9--------------------------------------|
A|-------------------------------------------------------------------------|
E|-------------------------------------------------------------------------|

e|-------------------------------------------------------------------------|
B|-------------------------------------------------------------------------|
G|--4444-4444-4444-4444-6--------------------------------------------------|
D|-------------------------------------------------------------------------|
A|--2222-2222-2222-2222-4----\\\\\\\\\\\\\---------------------------------|
E|---------------------------\\\\\\\\\\\\\---------------------------------|
                              pick scrape
Verse X2
e|-------------------------------------------------------------------------|
B|-------------------------------------------------------------------------|
G|--6-------------------------6666666666-----------------------------------|
D|------------------7777796666---------------------------------------------|
A|--4-------------------------4444444444-----------------------------------|
E|------------------5555574444---------------------------------------------|

Pre-Chorus
e|-------------------------------------------------------------------------|
B|-------------------------------------------------------------------------|
G|-------------------------------------------------------------------------|
D|--------------------------66666-66666------------------------------------|
A|--77777-77777-44444-44444-44444-44444-66666-66666-77777-77777-99999-99999|
E|--55555-55555-22222-22222-------------44444-44444-55555-55555-77777-77777|

X4 Chorus
e|-------------------------------------------------------------------------|
B|-------------------------------------------------------------------------|
G|--6666646666999991111111111----------------------------------------------|
D|-------------------------------------------------------------------------|
A|--4444424444777779-9-9-9-9-----------------------------------------------|
E|-------------------------------------------------------------------------|

e|-------------------------------------------------------------------------|
B|-------------------------------------------------------------------------|
G|--6----------------------------------------------------------------------|
D|-------------------------------------------------------------------------|
A|--4----\\\\\\\\-----------------------------------------------------------
E|-------------------------------------------------------------------------|
        pick scrape
Verse
e|-------------------------------------------------------------------------|
B|-------------------------------------------------------------------------|
G|--6-------------------------6666666666-----------------------------------|
D|------------------7777796666---------------------------------------------|
A|--4-------------------------4444444444-----------------------------------|
E|------------------5555574444---------------------------------------------|

e|-------------------------------------------------------------------------|
B|-------------------------------------------------------------------------|
G|--66666-66666-66666-66666------------6666666666--------------------------|
D|---------------------------7777796666------------------------------------|
A|--44444-44444-44444-44444------------4444444444--------------------------|
E|---------------------------5555574444------------------------------------|
    ***** ***** ***** *****

Pre-Chorus
e|-------------------------------------------------------------------------|
B|-------------------------------------------------------------------------|
G|-------------------------------------------------------------------------|
D|--------------------------66666-66666------------------------------------|
A|--77777-77777-44444-44444-44444-44444-66666-66666-77777-77777-99999-99999|
E|--55555-55555-22222-22222-------------44444-44444-55555-55555-77777-77777|

X4 Chorus
e|-------------------------------------------------------------------------|
B|-------------------------------------------------------------------------|
G|--6666646666999991111111111----------------------------------------------|
D|-------------------------------------------------------------------------|
A|--4444424444777779-9-9-9-9-----------------------------------------------|
E|-------------------------------------------------------------------------|

Interlude
e|-------------------------------------------------------------------------|
B|-------------------------------------------------------------------------|
G|--666-99-66-4----------6-------------------------------------------------|
D|--666-99-66-4-777-4-66-6-------------------------------------------------|
A|--444-77-44-2-777-4-66-4-------------------------------------------------|
E|--------------555-2-44---------------------------------------------------|
    *** ** ** * ***   **
e|-------------------------------------------------------------------------|
B|-------------------------------------------------------------------------|
G|--666-99-66-4-----4----6-------------------------------------------------|
D|--666-99-66-4-777-4-66-6-------------------------------------------------|
A|--444-77-44-2-777-2-66-4-------------------------------------------------|
E|--------------555---44---------------------------------------------------|
    *** ** ** * ***   **

e|-------------------------------------------------------------------------|
B|-------------------------------------------------------------------------|
G|--666-99-66-4----------66666666999911111111------------------------------|
D|--666-99-66-4-777-4-66---------------------------------------------------|
A|--444-77-44-2-777-4-66-4444444477779-9-9-9-------------------------------|
E|--------------555-2-44---------------------------------------------------|
    *** ** ** * ***   **
e|-------------------------------------------------------------------------|
B|-------------------------------------------------------------------------|
G|--666-99-66-4----------6-------------------------------------------------|
D|--666-99-66-4-777-4-66-6-------------------------------------------------|
A|--444-77-44-2-777-4-66-4-------------------------------------------------|
E|--------------555-2-44---------------------------------------------------|
    *** ** ** * ***   **
e|-------------------------------------------------------------------------|
B|-------------------------------------------------------------------------|
G|--666-99-66-4-----4----6-------------------------------------------------|
D|--666-99-66-4-777-4-66-6-------------------------------------------------|
A|--444-77-44-2-777-2-66-4-------------------------------------------------|
E|--------------555---44---------------------------------------------------|
    *** ** ** * ***   **

e|-------------------------------------------------------------------------|
B|-------------------------------------------------------------------------|
G|--666-99-66-4----------6666666666666666----------------------------------|
D|--666-99-66-4-777-4-66---------------------------------------------------|
A|--444-77-44-2-777-4-66-4444444444444444-------------------------------|
E|--------------555-2-44---------------------------------------------------|
    *** ** ** * ***   **
e|-------------------------------------------------------------------------|
B|-------------------------------------------------------------------------|
G|--666-99-66-4------------------------------------------------------------|
D|--666-99-66-4-7777-4444--------------------------------------------------|
A|--444-77-44-2-7777-4444--------------------------------------------------|
E|--------------5555-2222--------------------------------------------------|

e|-------------------------------------------------------------------------|
B|-------------------------------------------------------------------------|
G|--666-99-66-4------4444--------------------------------------------------|
D|--666-99-66-4-7777-4444--------------------------------------------------|
A|--444-77-44-2-7777-2222--------------------------------------------------|
E|--------------5555-------------------------------------------------------|

e|-------------------------------------------------------------------------|
B|-------------------------------------------------------------------------|
G|--666-99-66-4-------------4----------------------------------------------|
D|--666-99-66-4-7777-4444-2-4----------------------------------------------|
A|--444-77-44-2-7777-4444-2-2----------------------------------------------|
E|--------------5555-2222-0------------------------------------------------|

X2
e|-------------------------------------------------------------------------|
B|-------------------------------------------------------------------------|
G|--7/9-8------------------------------------------------------------------|
D|--------9-7--------------------------------------------------------------|
A|-------------------------------------------------------------------------|
E|-------------------------------------------------------------------------|

e|-------------------------------------------------------------------------|
B|--9--------5-7-7--9---7--------------------------------------------------|
G|---8---8---7/9-9---8--9--------------------------------------------------|
D|----9--9------------9----------------------------------------------------|
A|-------------------------------------------------------------------------|
E|-------------------------------------------------------------------------|

e|--1212121212121111111111119-9-9-9-9-9-7-7-7-7-1111-----------------------|
B|--101010101010101010101010101010101010101010101010-----------------------|
G|-------------------------------------------------------------------------|
D|-------------------------------------------------------------------------|
A|-------------------------------------------------------------------------|
E|-------------------------------------------------------------------------|

X4
e|---------1212------------------------------------------------------------|
B|--9h10-10----1010-9h10---------------------------------------------------|
G|-------------------------------------------------------------------------|
D|-------------------------------------------------------------------------|
A|-------------------------------------------------------------------------|
E|-------------------------------------------------------------------------|

e|-------------------------------------------------------------------------|
B|-------------------------------------------------------------------------|
G|---------6666------------------------------------------------------------|
D|--7777-4-6666-6--7777-99999999-------------------------------------------|
A|--7777-4-4444-6--7777-99999999-------------------------------------------|
E|--5555-2------4--5555-77777777-------------------------------------------|
    ***    ***     ***

Play this over the top of the previous riff
X3
e|--------7----------------------------------------------------------------|
B|-------------------------------------------------------------------------|
G|--8-9-8---8-9---8-9---8-9----------------------------------------------|
D|--------------9-----9----------------------------------------------------|
A|-------------------------------------------------------------------------|
E|-------------------------------------------------------------------------|

Then play the same bit just without the last bit
e|--------7----------------------------------------------------------------|
B|-------------------------------------------------------------------------|
G|--8-9-8---8-9------------------------------------------------------------|
D|--------------9----------------------------------------------------------|
A|-------------------------------------------------------------------------|
E|-------------------------------------------------------------------------|

X4 Chorus
e|-------------------------------------------------------------------------|
B|-------------------------------------------------------------------------|
G|--6666646666999991111111111----------------------------------------------|
D|-------------------------------------------------------------------------|
A|--4444424444777779-9-9-9-9-----------------------------------------------|
E|-------------------------------------------------------------------------|

Solo comes in after X2
e|--9--9--9----------------------------9--9--9---------11------------------|
B|--12b12b12b-12p9---------------------12b12b12b-12-14----14-12------------|
G|----------------10-9p8h9---8---------------------------------------------|
D|-------------------------9---11------------------------------------------|
A|-------------------------------------------------------------------------|
E|-------------------------------------------------------------------------|

e|-------------------------------------------------------------------------|
B|-------------------------------------------------------------------------|
G|--4444-4444-4444-4444-6~~------------------------------------------------|
D|-------------------------------------------------------------------------|
A|--2222-2222-2222-2222-4~~------------------------------------------------|
E|-------------------------------------------------------------------------|

THE END

************************************

| /   slide up
| \   slide down
| h   hammer-on
| p   pull-off
| ~   vibrato
| +   harmonic
| x   Mute note
| b   Bend
| pb  Pre-bend
| br  Bend release
| pbr Pre-bend release
| brb Bend release bend

************************************
Tap to rate this tab
# A B C D E F G H I J K L M N O P Q R S T U V W X Y Z