Song name
# A B C D E F G H I J K L M N O P Q R S T U V W X Y Z

Rise Against - Dancing For Rain tab

This is my first tab so im hoping its right. This is how I play this song. If you 
have any corrections just comment :)
Intro:

|----------------------------------------------------|
|-7---8-----8-----8-----8---7-----7-----7-----7------|
|-------9-----9-----9-----9---9-----7-----7-----7----|
|---------9-----9-----9---------------9-----9-----9--|
|----------------------------------------------------|
|---0------------------------------------------------|

|--------------------------------------------------------|
|----------10-----10-----10-----10----8--7---------------|
|-------------7------7------7------7--------9---11--12---|
|-9--10--7------7------7------7-------------10--10--10---|
|-------------------------------------------10--10--10---|
|--------------------------------------------------------|

Pre-Verse:
                                              
|-----------------------------------------| (x4)
|-----------------------------------------|
|-9-9-11-11-10-7-777777-5-555555-7-777777-|
|-x-x-x--x--x--7-777777-5-555555-7-777777-|
|-7-7-9--9--10-5-555555-3-333333-5-555555-|
|-----------------------------------------|

Verse:

|-----|---------------------------------------------------------------------------------|
|-----|------------------------------------------------------------------------8--7-----|
|--9--|-----------9---9---9---9---9---9---9---9---9---9---9---9---9---9-777777-------7--|
|--x--|-----------x---x---x---x---x---x---x---x---x---x---x---x---x---x-777777----------|
|--7--|-----------7---7---7---7---7---7---7---7---7---7---7---7---7---7-555555----------|
|-----|---------------------------------------------------------------------------------|

Chorus:

|------------------------------------------------------------------------| (x2)
|------------------------------------------------------------------------|
|-------------------55555555-77777777-------------------55555555----7777-|
|-22222222-55555555-55555555-77777777-22222222-55555555-55555555--5-7777-|
|-22222222-55555555-33333333-55555555-22222222-55555555-33333333--5-5555-|
|-00000000-33333333-------------------00000000-33333333-----------3------|

Pre-Verse:
                                              
|-----------------------------------------| (x4)
|-----------------------------------------|
|-9-9-11-11-10-7-777777-5-555555-7-777777-|
|-x-x-x--x--x--7-777777-5-555555-7-777777-|
|-7-7-9--9--10-5-555555-3-333333-5-555555-|
|-----------------------------------------|

Verse:

|-----|---------------------------------------------------------------------------------|
|-----|------------------------------------------------------------------------8--7-----|
|--9--|-----------9---9---9---9---9---9---9---9---9---9---9---9---9---9-777777-------7--|
|--x--|-----------x---x---x---x---x---x---x---x---x---x---x---x---x---x-777777----------|
|--7--|-----------7---7---7---7---7---7---7---7---7---7---7---7---7---7-555555----------|
|-----|---------------------------------------------------------------------------------|

Chorus:

|------------------------------------------------------------------------| (x2)
|------------------------------------------------------------------------|
|-------------------55555555-77777777-------------------55555555----7--7-|
|-22222222-55555555-55555555-77777777-22222222-55555555-55555555--5-7--7-|
|-22222222-55555555-33333333-55555555-22222222-55555555-33333333--5-5--5-|
|-00000000-33333333-------------------00000000-33333333-----------3------|

Breakdown:

|----------------------------------------------------|
|-7---8-----8-----8-----8---7-----7-----7-----7------|
|-------9-----9-----9-----9---9-----7-----7-----7----|
|---------9-----9-----9---------------9-----9-----9--|
|----------------------------------------------------|
|---0------------------------------------------------|

|--------------------------------------------------------|
|----------10-----10-----10-----10----8--7---------------|
|-------------7------7------7------7--------9---11--12---|
|-9--10--7------7------7------7-------------10--10--10---|
|-------------------------------------------10--10--10---|
|--------------------------------------------------------|

|----------------------------------------------------|
|-7---8-----8-----8-----8---7-----7-----7-----7------|
|-------9-----9-----9-----9---9-----7-----7-----7----|
|---------9-----9-----9---------------9-----9-----9--|
|----------------------------------------------------|
|---0------------------------------------------------|

|--------------------------------------------------------|
|----------10-----10-----10-----10----8--7---------------|
|-------------7------7------7------7--------9---11--12---|
|-9--10--7------7------7------7-------------10--10--10---|
|-------------------------------------------10--10--10---|
|--------------------------------------------------------|

Interlude:

|-------------|-------------------------|
|-------------|-------------------------|
|-11-11-11-11-|--12--12-12--12--12-11-9-|
|-x--x--x--x--|--x---x--x---x---x--x--x-|
|-9--9--9--9--|--10--10-10--10--10-9--7-|
|-------------|-------------------------|

|---------------------------------------------------------| (x2)
|---------------------------------------------------------|
|-7--7-7--7--7-9-11-14--14-14--14--14-12-11-12--12-12--12-|
|-x--x-x--x--x-x-x--x---x--x---x---x--x--x--x---x--x---x--|
|-5--5-5--5--5-7-9- 12--12-12--12--12-10-9--10--10-10--10-|
|---------------------------------------------------------|

This next part is played twice:

|---------------------------------|
|---------------------------------|
|---------------------------------|
|-2-----2-----2-----2-----2-2-2-2-|
|-2-----2-----2-----2-----2-2-2-2-|
|-0-0-0-0-0-0-0-0-0-0-0-0-0-0-0-0-|
    . .   . .   . .   . .

|---------------------------------|
|---------------------------------|
|-4-----4-----4-----4-----4---4---|
|-4-----4-----4-----4-----4---4---|
|-2-2-2-2-2-2-2-2-2-2-2-2-2---2---|
|---------------------------------|
    . .   . .   . .   . .

|---------------------------------|
|---------------------------------|
|-7-----7-----7-----7-----7---7---|
|-7-----7-----7-----7-----7---7---|
|-5-5-5-5-5-5-5-5-5-5-5-5-5---5---|
|---------------------------------|
    . .   . .   . .   . .

|---------------------------------|
|---------------------------------|
|-5-----5-----5-5-5-5-5-5-5-5-5-5-|
|-5-----5-----5-5-5-5-5-5-5-5-5-5-|
|-3-3-3-3-3-3-3-3-3-3-3-3-3-3-3-3-|
|---------------------------------|
    . .   . .      

Play this instead for the second time through:

|-----------------------------|
|-----------------------8--7--|
|-5-----5-----5-5-5-5--------7|
|-5-----5-----5-5-5-5---------|
|-3-3-3-3-3-3-3-3-3-3---------|
|-----------------------------|
    . .   . .      


Chorus:

|------------------------------------------------------------------------| (x2)
|------------------------------------------------------------------------|
|-------------------55555555-77777777-------------------55555555----7777-|
|-22222222-55555555-55555555-77777777-22222222-55555555-55555555--5-7777-|
|-22222222-55555555-33333333-55555555-22222222-55555555-33333333--5-5555-|
|-00000000-33333333-------------------00000000-33333333-----------3------|

Outro:

|------------------| (x4)
|------------------|
|-55555555---7-777-|
|-55555555-5-7-777-|
|-33333333-5-5-555-|
|----------3-------|
 
After the fourth time end on:

|---| (Let ir ring)
|---|
|-9-|
|-x-|
|-7-|
|---|


Tap to rate this tab
 
# A B C D E F G H I J K L M N O P Q R S T U V W X Y Z