Song name
# A B C D E F G H I J K L M N O P Q R S T U V W X Y Z

Rise Against - Generation Lost tab

-------------------------------------------------------------------------------
			     Generation Lost by Rise Against
-------------------------------------------------------------------------------
Tabbed by: Will Creary
Email: WCreary2010@hotmail.com

youtube.com/user/willcreary

Tuning: half step down
sorry, im terrible at transcribing strum patterns, youll have to listen to the song to 
it out yourself. This is the first song Rise Against ever played a half step down, 
it was the first song Todd Mohney wrote for the band.

Here's a video of me playing it: http://www.youtube.com/watch?v=VAPqAF9VW04&feature=related

I made all the hammer ons and pulloffs a / instead of h and p just because it was easier 
write. I figured you guys are playing guitar, so you probably have the mental 
to figure something like that out.

INTRO (PLAY THIS TWICE)

e|---------------------------------------------------------------------------|
B|---------------------------------------------------------------------------|
G|---------------77777------------------------7-9-7-6-7-6--------------------|
D|---------------55555------------------------------------9-7----------------|
A|--999999-999999-----7-77-7777-999999-999999--------------------------------|
E|--777777-777777-----5-55-5555-777777-777777--------------------------------|

e|--------------------------------------------------------------------------------|
B|--------------------------------------------------------------------------------|
G|---------------77777------------------------14-14-14-14-14-14-14-14-14-14-14-14-|
D|---------------55555-222--------------------x--x--x--x--x--x--x--x--x--x-x---x--|
A|--999999-999999------222444--33333-3333333--12-12-12-12-12-12-12-12-12-12-12-12-|
E|--777777-777777------000222--55555-5555555--------------------------------------|


After the second time through the intro, play this, and let it ring. This is the point 
there's a cool bass riff.
e|---------|
B|---------|
G|---------|
D|---------|
A|-9-------|
E|-7-------|

THEN:

e|----------------|
B|----------------|
G|----------------|
D|-----------7-6--|
A|-44444-777-5-4--|
E|-22222-555------|


VERSE:
e|----------|
B|----------|
G|----------|
D|----------| X3
A|-9-9------|
E|-7-7------|
     Getting trampled under boots of progress
     Ignore the pleading of the nameless faces
     Now with (our back) against the ->
e|----------------|
B|----------------|
G|----------------|
D|-----------7-6--|
A|-44444-777-5-4--|
E|-22222-555------|
   wall. How long 'til we -?

e|------------|
B|-------------|
G|-------------|
D|-------------| X3
A|-9-9---------|
E|-7-7---------|
   fall? Do away with all the underprivileged,
   their demographic doesn't fit your image.
   Turn your (blind eye) when duty ->

e|------------------------------------------------------------------|
B|------------------------------------------------------------------|
G|------------------------------14-14-14-14-14-14-14-14-14-14-14-14-|
D|-----------7-6----------------x--x--x--x--x--x--x--x--x--x-x---x--|
A|-44444-777-5-4-55555-5555555--12-12-12-12-12-12-12-12-12-12-12-12-|
E|-22222-555-----33333-3333333--------------------------------------|
   calls. How long 'till we fall?


BRIDGE:

e|---------------------------------------------------------------------------|
B|---------------------------------------------------------------------------|
G|---------------------------------------------------------------------------| X 2
D|---------------------xx-7-xx-7---------------------------------------------|
A|-xx-9-xx-9-xx-9-xx-9-xx-5-xx-5-xx---xx-------------------------------------|
E|-xx-7-xx-7-xx-7-xx-7-----------xx-5-xx-5-----------------------------------|
   (IN   WITH THE  NEW!)
            And this is something that you can't ignore
   (IN   WITH THE  NEW!)
            The simple thing worth fighting for

e|--------------------------------------------------------------------------------------|
B|--------------------------------------------------------------------------------------|
G|---------------------77777------------------------14-14-14-14-14-14-14-14-14-14-14-14-|
D|---------------------55555-222--------------------x--x--x--x--x--x--x--x--x--x-x---x--|
A|-xx-9-xx-9-xx-9-xx-9-------222444--55555-5555555--12-12-12-12-12-12-12-12-12-12-12-12-|
E|-xx-7-xx-7-xx-7-xx-7-------000222--33333-3333333--------------------------------------|
   (IN WITH THe NEW!)
	       'Cuz now, they're tearing down our doors.

CHORUS:

e|---------------------------------------------------------------------------|
B|---------------------------------------------------------------------------|
G|---------------77777------------------------7-9-7-6-7-6--------------------|
D|---------------55555------------------------------------9-7----------------|
A|--999999-999999-----7-77-7777-999999-999999--------------------------------|
E|--777777-777777-----5-55-5555-777777-777777--------------------------------|
 And so, she screams, out the window, "I've had it up to here! So sick and tired!..."

e|--------------------------------------------------------------------------------|
B|--------------------------------------------------------------------------------|
G|---------------77777------------------------14-14-14-14-14-14-14-14-14-14-14-14-|
D|---------------55555-222--------------------x--x--x--x--x--x--x--x--x--x-x---x--|
A|--999999-999999------222444--33333-3333333--12-12-12-12-12-12-12-12-12-12-12-12-|
E|--777777-777777------000222--55555-5555555--------------------------------------|
   "... of wondering where I'll be next year!"

VERSE 2:
e|----------|
B|----------|
G|----------|
D|----------| X3
A|-9-9------|
E|-7-7------|
     Caring less about the homeless millions
     And the petty problems that go with them
     Reap the (profit) that reaps their ->
e|----------------|
B|----------------|
G|----------------|
D|-----------7-6--|
A|-44444-777-5-4--|
E|-22222-555------|
   lives. Tell me that it's ->

e|------------|
B|-------------|
G|-------------|
D|-------------| X3
A|-9-9---------|
E|-7-7---------|
   fine. Throw them out and call it relocation
   lower income housing, quick solution.
   A GENERATION ->

e|------------------------------------------------------------------|
B|------------------------------------------------------------------|
G|------------------------------14-14-14-14-14-14-14-14-14-14-14-14-|
D|-----------7-6----------------x--x--x--x--x--x--x--x--x--x-x---x--|
A|-44444-777-5-4-55555-5555555--12-12-12-12-12-12-12-12-12-12-12-12-|
E|-22222-555-----33333-3333333--------------------------------------|
   LOST!!!!

BRIDGE:

e|---------------------------------------------------------------------------|
B|---------------------------------------------------------------------------|
G|---------------------------------------------------------------------------| X 2
D|---------------------xx-7-xx-7---------------------------------------------|
A|-xx-9-xx-9-xx-9-xx-9-xx-5-xx-5-xx---xx-------------------------------------|
E|-xx-7-xx-7-xx-7-xx-7-----------xx-5-xx-5-----------------------------------|
   (IN   WITH THE  NEW!)
            And this is something that you can't ignore
   (IN   WITH THE  NEW!)
            The simple thing worth fighting for

e|--------------------------------------------------------------------------------------|
B|--------------------------------------------------------------------------------------|
G|---------------------77777------------------------14-14-14-14-14-14-14-14-14-14-14-14-|
D|---------------------55555-222--------------------x--x--x--x--x--x--x--x--x--x-x---x--|
A|-xx-9-xx-9-xx-9-xx-9-------222444--55555-5555555--12-12-12-12-12-12-12-12-12-12-12-12-|
E|-xx-7-xx-7-xx-7-xx-7-------000222--33333-3333333--------------------------------------|
   (IN WITH THe NEW!)
	       'Cuz now, they're tearing down our doors.

CHORUS:

e|---------------------------------------------------------------------------|
B|---------------------------------------------------------------------------|
G|---------------77777------------------------7-9-7-6-7-6--------------------|
D|---------------55555------------------------------------9-7----------------|
A|--999999-999999-----7-77-7777-999999-999999--------------------------------|
E|--777777-777777-----5-55-5555-777777-777777--------------------------------|
 And so, she screams, out the window, "I've had it up to here! So sick and tired!..."


BREAKDOWN:

e|--------------------------------------------------7----7--7---------------------|
B|-------------------------------------------------10---10-10---------------------|
G|---------------7---------12-12-12-11-11-11-11-12--9----9--9---------------------|
D|---------------5---2-----x--x--x---x-x--x--x-/x---7----7--7---------------------|
A|--999999-999999----2--4--10-10-10--9-9--9--9-/10--7----7--7---------------------|
E|--777777-777777----0--2---------------------------7----7--7---------------------|
   "... of wondering where... I'll be... next... year!"

e|-------------------------7----7--7---------------------|
B|------------------------10---10-10---------------------|
G|12-12-12-11-11-11-11-12--9----9--9---------------------|
D|x--x--x---x-x--x--x-/x---7----7--7---------------------|
A|10-10-10--9-9--9--9-/10--7----7--7---------------------|
E|-------------------------7----7--7---------------------|

e|-------------------------7---|
B|------------------------10---|
G|12-12-12-11-11-11-11-12--9---| Let ring at the end for a little bit until the next part
D|x--x--x---x-x--x--x-/x---7---|
A|10-10-10--9-9--9--9-/10--7---|
E|-------------------------7---|

BRIDGE PT 2:

e|---------------------------------------------------------------------------|
B|---------------------------------------------------------------------------|
G|--4444-444-77777777-7777777-22222222---------------------------------------|
D|--4444-444-77777777-5555555-22222222---------------------------------------|
A|---------------------------------------------------------------------------|
E|---------------------------------------------------------------------------|
     ***  **  *******  *** *** *******
Now in the whirlwind of my life is where you presently reside

e|---------------------------------------------------------------------------|
B|---------------------------------------------------------------------------|
G|--4444-444-77777777-7777777-99999999---------------------------------------|
D|--4444-444-77777777-5555555-77777777---------------------------------------|
A|---------------------------------------------------------------------------|
E|---------------------------------------------------------------------------|
     ***  **  *******  *** *** *******
Can i pretend you don't exist, maybe just for ten more minutes?

e|---------------------------------------------------------------------------|
B|---------------------------------------------------------------------------|
G|--4444-444-77777777-7777777-22222222---------------------------------------|
D|--4444-444-77777777-5555555-22222222---------------------------------------|
A|---------------------------------------------------------------------------|
E|---------------------------------------------------------------------------|
     ***  **  *******  *** *** *******
My heart's been broken into two, and rusted from years of disuse

e|---------------------------------------------------------------------------|
B|---------------------------------------------------------------------------|
G|--4444-444-77777777--------------------------------------------------------|
D|--4444-444-77777777--------------------------------------------------------|
A|--------------------555555577777777----------------------------------------|
E|--------------------333333355555555----------------------------------------|
     ***  **  ******* ***********
So will you place upon it your hand, and will you help it BEAT AGAIN!?

e|---------------------------------------------------------------------------|
B|---------------------------------------------------------------------------|
G|---------------------------------------------------------------------------|
D|--44-444-------------77-777------------44-444-7-77-7777--------------------|
A|--22-222--5-55-5555--55-555-4-44-4444--22-222-5-55-5555-55-555-7-77-7777---|
E|----------3-33-3333---------2-22-2222-------------------33-333-5-55-5555---|

Now in the whirlwinds of my life is where you presently reside.
Can I pretend you don't exist maybe just for ten more minutes?

e|---------------------------------------------------------------------------|
B|---------------------------------------------------------------------------|
G|---------------------------------------------------------------------------|
D|--44-444-------------77-777------------44-444-7-77-7777--------------------|
A|--22-222--5-55-5555--55-555-4-44-4444--22-222-5-55-5555-55-555-7-77-7777---|
E|----------3-33-3333---------2-22-2222-------------------33-333-5-55-5555---|

My heart's been broken into two, and rusted from years of disuse,
so will you place upon it your hand, and will you help it BEAT AGAIN?

SOLO:
e|----------------------------10---------------------------------------------|
B|--9/12-12-1212--9/12-121212---12-10-8-7-7/8/10/8/7-------------------------|
G|---------------------------------------------------7-7799776------7-9------|
D|-------------------------------------------------------------7/9-9---------|
A|---------------------------------------------------------------------------|
E|---------------------------------------------------------------------------|

e|----------------------------------------------------------------------5----|
B|-7-77-7/8-8/7--12-12-12/13---12-12-12-12/13-13/12---5/7-7-77--5/7-777---7--|
G|---------------------------------------------------------------------------|
D|---------------------------------------------------------------------------|
A|---------------------------------------------------------------------------|
E|---------------------------------------------------------------------------|

e|---------------------------------------------------------------------------|
B|-5/3-3-3/5/7/5-3---------------5/7-7-8/7/8/10-1010-10/8/7/8-3-333/5-7------|
G|-----------------2-22-44-222-----------------------------------------------|
D|---------------------------------------------------------------------------|
A|---------------------------------------------------------------------------|
E|---------------------------------------------------------------------------|

e|---------------------------------------------------------------------------|
B|-8-88-88/7-7---------------------------------------------------------------|
G|---------------------------------------------------------------------------| Let last note ring
D|---------------------------------------------------------------------------|
A|---------------------------------------------------------------------------|
E|---------------------------------------------------------------------------|

Lyrics during solo:
It seems the whole world's turned on me
(bound and gagged) in the land of the free
let's talk this over! this game is over!
in with the new, out with the old
hearts of the world have grown so cold
this game is over! LET'S TALK THIS over!

Hope you enjoyed my tab as much as I enjoyed writing it.
Tap to rate this tab
# A B C D E F G H I J K L M N O P Q R S T U V W X Y Z